PrimaNota.ru - самый крупный в мире бесплатный архив песенных текстов, аккордов, табулатур и нот


Mark Minelli - Greying - аккорды и текст, видео

Регистрация Запомнить меня
Войти через:  Facebook Google Twitter Vk Yandex Mail.ru

Mark Minelli - Greying - аккорды и текст, видео

Печатать
Просмотров: 86
Greying
Mark Minelli
Artist: Mark Minelli
Song: Greying
Album: Gift Horse
Artist's Page: http://candyrat.com/artists/MarkMinelli/
Youtube: http://www.youtube.com/watch?v=IA1_U_8coVQ
Tabbed By: Donovan
E-Mail: D_man3981@hotmail.com


Chords used: C, Am, G, F7M  , Em7

Verse Chord Progression:
   C                         Am
e--0--0-0--0-0--0--0-0--0-0--0--0-0--0-0--0--0-0--0-0-|
B--1--1-1--1-1--1--1-1--1-1--1--1-1--1-1--1--1-1--1-1-|
G--0--0-0--0-0--0--0-0--0-0--2--2-2--2-2--2--2-2--2-2-|
D--2--2-2--2-2--2--2-2--2-2--2--2-2--2-2--2--2-2--2-2-|
A--3--3-3--3-3--3--3-3--3-3--0--0-0--0-0--0--0-0--0-0-|
E-----------------------------------------------------|
   G            Am           F7M          Em7
e--3--3-3--3-3--0--0-0--0-0--0--0-0--0-0--0--0-0--0-0-|
B--0--0-0--0-0--1--1-1--1-1--1--1-1--1-1--3--3-3--3-3-|
G--0--0-0--0-0--2--2-2--2-2--2--2-2--2-2--4--4-4--4-4-|
D--0--0-0--0-0--2--2-2--2-2--3--3-3--3-3--5--5-5--5-5-|
A--2--2-2--2-2--0--0-0--0-0--3--3-3--3-3--5--5-5--5-5-|
E--3--3-3--3-3----------------------------------------|

Chorus First Part Chord Progression:
   C                         Em7
e--0--0-0--0-0--0--0-0--0-0--0--0-0--0-0--0--0-0--0-0-|
B--1--1-1--1-1--1--1-1--1-1--3--3-3--3-3--3--3-3--3-3-|
G--0--0-0--0-0--0--0-0--0-0--4--4-4--4-4--4--4-4--4-4-|
D--2--2-2--2-2--2--2-2--2-2--5--5-5--5-5--5--5-5--5-5-|
A--3--3-3--3-3--3--3-3--3-3--5--5-5--5-5--5--5-5--5-5-|
E-----------------------------------------------------|
   Am                        C            G
e--0--0-0--0-0--0--0-0--0-0--0--0-0--0-0--3--3-3--3-3-|
B--1--1-1--1-1--1--1-1--1-1--1--1-1--1-1--0--0-0--0-0-|
G--2--2-2--2-2--2--2-2--2-2--0--0-0--0-0--0--0-0--0-0-|
D--2--2-2--2-2--2--2-2--2-2--2--2-2--2-2--0--0-0--0-0-|
A--0--0-0--0-0--0--0-0--0-0--3--3-3--3-3--2--2-2--2-2-|
E-----------------------------------------3--3-3--3-3-|

Chorus 2nd Part Chord Progression:
   F7M          Em7          Am
e--0--0-0--0-0--0--0-0--0-0--0--0-0--0-0--0--0-0--0-0-|
B--1--1-1--1-1--3--3-3--3-3--1--1-1--1-1--1--1-1--1-1-|
G--2--2-2--2-2--4--4-4--4-4--2--2-2--2-2--2--2-2--2-2-|
D--3--3-3--3-3--5--5-5--5-5--2--2-2--2-2--2--2-2--2-2-|
A--3--3-3--3-3--5--5-5--5-5--0--0-0--0-0--0--0-0--0-0-|
E-----------------------------------------------------|

Lyrics with Chords:
Verse 1:
C                 Am
  Out of my Mother, I came with a scream
G            Am    F7M             Em7
  And onto my feet, Rose with a scheme and
C                Am  
  Under my Father, I learned how to move
G            Am    F7M            Em7
  And I move today, Like he taught me to

C                    Am
  Beside my sisters, I began to speak
G              Am     F7M         Em7
  Next to my brothers, I began to sing

Chorus 1:
           C                       Em7
And I got, Hair on my chest, (On my chest) 
                  Am                  C      G
More on my face, (My face) Shadeless, Brown, then grey
           C                      Em7
And I got, Dirt on my hands (On my hands)
                              Am                                C
Blood in my veins that have, (In my veins) seen its fair share, share of 
      G
sunny days (Sunny Days)
            F7M                Em7       Am
And I said, (Oooo) I will grow old, still
F7M                Em7       Am
(Oooo) I will grow old, still
F7M                Em7          Am
(Oooo) And I will grow old, still

Verse 2:
C               Am
  Sitting a long, I heard myself think
G          Am    F7M                 Em7
  Amidst a crowd, So the bottom of a drain
C                   Am 
  Out in the country, I learned how to hunt
G             Am   F7M                Em7
  Deep in the city, I go after what I want

Chorus 2:
           C                       Em7
And I got, lines on my cheek (On my cheek)
                        Am                                   C
Stretched out my neck, (Out my neck) I am not wise, But I am smarter now then 
G
then
           C                       Em7
And I got, A rhythm in my step (In my step)
                         Am                            C
Beat in my heart and I, (My heart) done all I can, and it is gotten me this 
G
far
            F7M                Em7       Am
And I said, (Oooo) I will grow old, still
F7M                    Em7       Am
(Oooo) And I will grow old, still
F7M                    Em7       Am   
(Oooo) And I will grow old, still

Verse 3:
C               Am 
  Beside a woman, I took my first breath
G           Am    F7M                  Em7
  Next to a lover, First found I could laugh and
C               Am
  Around a child, I first saw myself
G               Am    F7M             Em7
  In front of a mirror, I see someone else

Chorus 3:
           C                       Em7
And I got, A creak in my back (In my back)
                             Am
A wheeze in my breath and o, (My breath) The days of my youth have not 
C            G
forgotten me yet
            F7M                Em7       Am
And I said, (Oooo) I will grow old, still
F7M                    Em7       Am
(Oooo) And I will grow old, still
F7M             Em7       Am
And I will grow old, still

Finish off playing the Verse Chord Progression
Добавлено: 02.05.2012
Другие материалы по этой песне:
  • Аккорды и текст

Страница создана 02.05.2012
http://primanota.ru/mark-minelli/greying-chords.htm
Привет, Гость.
Предлагаем пройти революционный курс по гитаре.
Подарок от PrimaNota.Ru, забирай!