PrimaNota.ru - самый крупный в мире бесплатный архив песенных текстов, аккордов, табулатур и нот


Mark Lanegan - Mud Pink Skag - аккорды и текст, видео

Регистрация Запомнить меня
Войти через:  Facebook Google Twitter Vk Yandex Mail.ru

Mark Lanegan - Mud Pink Skag - аккорды и текст, видео

Печатать
Просмотров: 118
Mud Pink Skag
Mark Lanegan
MARK LANEGAN - MUD PINK SKAG

album version - HIT THE CITY SINGLE
____________________________________
____________________________________
Tuned down half a step to Eb-Ab-Db-Gb-Bb-Eb.
____________________________________
____________________________________

chords:
    G5  F5  C5 
eb-------------
bb-------------
gb----------5--
db--5---3---5--
ab--5---3---3--
eb--3---1------
      

intro:
   G5     
eb-----------------------------------------
bb---------------------------------18b(20)-
gb-----------------------15b---------------
db-15-17-----------15-17-----17-15---------
ab--------17-16-17-------------------------
eb-----------------------------------------
   F5
eb-----------------------------------------
bb---------------------------------18b(20)-
gb--------------------15-------------------
db-15-17-----------15----17-15-17----------
ab--------17-16-17-------------------------
eb-----------------------------------------
   C5
eb-----------------------------------------
bb---------------------------------18b(20)-
gb--------------------15b----15------------
db-15-17--------15-17-----17----17---------
ab--------16-17----------------------------
eb-----------------------------------------
   G5
eb------------------------------------------
bb------------------------------15----------
gb--------------------15b----17----17-15----
db-15-17--------15-17-----17-------------17-
ab--------16-17-----------------------------
eb------------------------------------------
_____________________________________

               G5
Well they keep moving them both eyes open
        C5               F5
Keep it down and off you go
      G5
Is it heavy yet baby? (Heavy Heavy)
            C5           F5
You hear it fade in stereo
          G5
Because a killer at the window 
         F5
Tries to catch you while you rest
            C5
Disease and suffering in day-glo
           G5
It wakes a demon in your chest (Heavy Heavy)
        G5
A Cinderella in the midnight
         F5
A beauty covered in the landslide
         C5
Is still walking on the nightline
      G5
Oh so heavy (Heavy Heavy)
           G5
Want to go on but you're too nervous
       C5                 F5
Get to swing that weight around
                    G5
Because when you're swaying little baby
            C5                 F5
You like to tear those heavens down
         G5
They all join in where she started
                F5
She leaves them crying when she goes
         C5
And they move like they're retarded
            G5
All getting heavy (Heavy Heavy)
           G5
And you're sleeping when you smile
        F5
And you smile when you're sick
        C5
Keep on dreaming when you kick
                G5                   F5 G5
When to kick is heavy, (heavy), heavy
________________________________________________
lead:
   G5                                              F5                                   G5
eb-----------------------------------------------------------------------------------------
bb-17b(18)r17-15------------------------------------------------------------13-11----------
gb---------------18-17b(18)r17-15----------------------------------------10-------12-10-12-
db--------------------------------17-14b(15)r14-12-10-10-8----------8-10-------------------
ab---------------------------------------------------------8-10---8------------------------
eb--------------------------------------------------------------8--------------------------
                      C5         F5            G5                                     F5
eb-18b(28)----18b(20)-----------------------------15-15-15-15-18-18-19-20-22-22-18-15----15-
bb-----------------------18b(20)----18b(20)----18-------------------------------------18----
gb------------------------------------------------------------------------------------------
db---------17---------17---------17---------17----------------------------------------------
ab------------------------------------------------------------------------------------------
eb------------------------------------------------------------------------------------------
                                                C5
eb-------------------------15----------------------------------------
bb-18-15----------------15----15----------------------------------18-
gb-------18-17-15-17-18----------18-17-15-17-15-17----15-17-15-------
db-------------------------------------------------17----------17----
ab-------------------------------------------------------------------
eb-------------------------------------------------------------------
                        G5
eb-------------------------------20b(22)-20-18---------------------
bb----------------------18----18---------------20-18-20----20~////-
gb-18-17-15-17-15-17/19----19---------------------------19---------
db-----------------------------------------------------------------
ab-----------------------------------------------------------------
eb-----------------------------------------------------------------
________________________________________________

          G5
I see you sway with eyes half open
            C5                F5
Better keep moving, there you go
          G5
There's a blackout at mid morning
            C5           F5
You hear it fade in stereo
           G5
And you're sleeping when you smile
    F5
And trying when you're sick
          C5
Because a light up in the window
        G5
Wakes a demon as you kick
        G5
A Cinderella in the midnight
        F5
And get covered by a landslide
         C5
Is still walking on the nightline
           G5            G5 F5 C5 G5 G5 F5 C5
Oh getting heavy (Heavy)

(Alright, Getting Heavy, Alright)

(That's it now)
Добавлено: 05.09.2015
Вам также может быть интересно:
Другие материалы по этой песне:
  • Аккорды и текст

Страница создана 05.09.2015
http://primanota.ru/mark-lanegan/mud-pink-skag-chords.htm
Привет, Гость.
Предлагаем пройти революционный курс по гитаре.
Подарок от PrimaNota.Ru, забирай!