PrimaNota.ru - самый крупный в мире бесплатный архив песенных текстов, аккордов, табулатур и нот


Mark Knopfler - Tahitian Sky - таба, видео

Регистрация Запомнить меня
Войти через:  Facebook Google Twitter Vk Yandex Mail.ru

Mark Knopfler - Tahitian Sky - таба, видео

Печатать
Просмотров: 112
Tabbed by: P BUTLER


Tuning: standard

e|--------------------------------------------------------------------------|
B|--------------------------------------2--5--3-----------------------------|
G|---------------------2--4--------2-4--------------------------------------|
D|-----2--4----2--4-5--------4---5----------------4---4--2------2--4--------|
A|-----------------------------------------------------------5---------0----|
E|--------------------------------------------------------------------------|

e|--------------------------------------------------------------------------|
B|--------------------------------------------------------------------------|
G|--------------------------------------------------------------------------|
D|------4--2----------------------------------------------------------------|
A|-------------5-4-5--------------------------------------------------------|
E|--------------------------------------------------------------------------|

     repeat once


e|-----------10------------------5-------------------------5----------------|
B|---10--12--12--12--10----5--7--7--7--5-----0--1--3--5/7-----7-------------|
G|---11--12------12--11----6--7-----7--6-----0--1--4----------7-------------|
D|--------------------------------------------------------------------------|
A|--------------------------------------------------------------------------|
E|--------------------------------------------------------------------------|

e|-----------10------------------5-----------------------------0------------|
B|---10--12--12--12--10----5--7--7--7--5-----0--1--3--7-------5-------------|
G|---11--12------12--11----6--7-----7--6-----0--1--4--7------6--------------|
D|----------------------------------------------------------5---------------|
A|---------------------------------------------------------0----------------|
E|--------------------------------------------------------------------------|

play this part slowly at first the speed up towards the end
e|--2--0------3-2----------------------2--0-----3-2-------------------------|
B|--3--3--3--3-----3/5-3-2-3/5-3-5/8---3--3-3--3----3/5----3----2----3------|
G|--2--0----4--------------------------2--0---4-----------------------------|
D|--0--0-------------------------------0--0---------------------------------|
A|--------------------------------------------------------------------------|
E|--------------------------------------------------------------------------|

e|--------------------------------------------------------------------------|
B|--------------------------------------2--5--3-----------------------------|
G|---------------------2--4--------2-4--------------------------------------|
D|-----2--4----2--4-5--------4---5----------------4---4--2------2--4--------|
A|-----------------------------------------------------------5---------0----|
E|--------------------------------------------------------------------------|

e|--------------------------------------------------------------------------|
B|--------------------------------------------------------------------------|
G|--------------------------------------------------------------------------|
D|------4--2----------------------------------------------------------------|
A|-------------5-4-5--------------------------------------------------------|
E|--------------------------------------------------------------------------|

     repeat once


e|-----------10------------------5-------------------------5----------------|
B|---10--12--12--12--10----5--7--7--7--5-----0--1--3--5/7-----7-------------|
G|---11--12------12--11----6--7-----7--6-----0--1--4----------7-------------|
D|--------------------------------------------------------------------------|
A|--------------------------------------------------------------------------|
E|--------------------------------------------------------------------------|

e|-----------10------------------5-----------------------------0------------|
B|---10--12--12--12--10----5--7--7--7--5-----0--1--3--7-------5-------------|
G|---11--12------12--11----6--7-----7--6-----0--1--4--7------6--------------|
D|----------------------------------------------------------5---------------|
A|---------------------------------------------------------0----------------|
E|--------------------------------------------------------------------------|

play this part slowly at first the speed up towards the end
e|--2--0------3-2----------------------2--0-----3-2-------------------------|
B|--3--3--3--3-----3/5-3-2-3/5-3-5/8---3--3-3--3----3/5----3----2----3------|
G|--2--0----4--------------------------2--0---4-----------------------------|
D|--0--0-------------------------------0--0---------------------------------|
A|--------------------------------------------------------------------------|
E|--------------------------------------------------------------------------|


outro
e|--------------------2---5--2----5\10--------------------------------------
|
B|----------------3---------------------------------------------------------
|
G|-------------2------------------------------------------------------------
|
D|--------4-----------------------------------------------------------------
|
A|----5---------------------------------------------------------------------
|
E|--------------------------------------------------------------------------
Добавлено: 19.07.2012
Другие материалы по этой песне:
  • Аккорды и текст

Страница создана 19.07.2012
http://primanota.ru/mark-knopfler/tahitian-sky-chords.htm
Привет, Гость.
Предлагаем пройти революционный курс по гитаре.
Подарок от PrimaNota.Ru, забирай!