PrimaNota.ru - самый крупный в мире бесплатный архив песенных текстов, аккордов, табулатур и нот


Mark Knopfler - Sultans Of Swing - текст песни, таба, бас-таба, видео

Регистрация Запомнить меня
Войти через:  Facebook Google Twitter Vk Yandex Mail.ru

Mark Knopfler - Sultans Of Swing - текст песни, таба, бас-таба, видео

Печатать
Просмотров: 311
e|--------------|
b|-8b--8--6-8-6-|
g|--------------|
d|--------------|
a|--------------|
e|--------------|

e|-------------------------------------|
b|-8br--8-5h8p5-3h5p3------------------|
g|-------------------5h7p5-------------|
d|-------------------------5h7p5-------|
a|-------------------------------5h7p5-|
e|-------------------------------------|

e|--------------------|
b|---x-10p8----8------|
g|-x--------10---10-7-|
d|--------------------|
a|--------------------|
e|--------------------|

e|-----------8--------8--------8--------8--------8--------|
b|-8h10p8----8h10p8---8h10p8---8h10p8---8h10p8---8h10p8---|
g|--------9---------9--------9--------9--------9--------9-|
d|--------------------------------------------------------|
a|--------------------------------------------------------|
e|--------------------------------------------------------|

e|---------------10---------------------------------------|
b|------------10----13p10----10---------------------10----|
g|-x-x-x--12b-------------12----12p10------------10----12-|
d|------------------------------------12---10h12----------|
a|--------------------------------------------------------|
e|--------------------------------------------------------|

e|-----------------------12------10-----|
b|-----10------11--x-11b----11br----x-x-|
g|---x-------x----------------------x-x-|
d|-x-------x------------------------x-x-|
a|--------------------------------------|
e|--------------------------------------|

|___x4_____||___x3_____|
e|-13p10----10-13p10----10-13-|
b|-------10----------11-------|
g|----------------------------|
d|----------------------------|
a|----------------------------|
e|----------------------------|

|___x7_____|
e|---x-15p12----12-15-|
b|-x---------13-------|
g|--------------------|
d|--------------------|
a|--------------------|
e|--------------------|

e|-15b-15br-13-15-13-------13----15b-|
b|-------------------15-------13-----|
g|-----------------------------------|
d|-----------------------------------|
a|-----------------------------------|
e|-----------------------------------|

Learn at your own pace, once you get it, its very fun!
Добавлено: 14.04.2012
Другие материалы по этой песне:

Страница создана 14.04.2012
http://primanota.ru/mark-knopfler/sultans-of-swing-chords.htm
Привет, Гость.
Предлагаем пройти революционный курс по гитаре.
Подарок от PrimaNota.Ru, забирай!