PrimaNota.ru - самый крупный в мире бесплатный архив песенных текстов, аккордов, табулатур и нот


Mark Knopfler - Shes Gone - таба, видео

Регистрация Запомнить меня
Войти через:  Facebook Google Twitter Vk Yandex Mail.ru

Mark Knopfler - Shes Gone - таба, видео

Печатать
Просмотров: 48
By Zehni Akdere
Zehniakdere@gmail.com

E||---------------------------|-----------------------|
B||-------------8p7-----------|-----------------------|
G||------------------7h9------|----7------------------|
D||-----5/7/9-----------------|--9---9-7----9---------|
A||--5------------------------|----------10---10/7--5-|
E||---------------------------|-----------------------|
                                                              This 2 part İs played 2 times
E||--------------------------|-------------------------|
B||--------------10p7h8------|-------------------------|
G||------------7-------------|---------------7---------|
D||-------7/9----------------|-------7/9h10-----10p9/7-|
A||----10--------------------|---10--------------------|
E||-10-----------------------|-------------------------|

E||---------------------------|-----------------------------------------------|
B||-------10/12----13---------|--12---------10------------------13------10/12-|
G||----12-------12----12-11---|-----12p9-12----12/11----9h11h12---12-11-------|
D||-12------------------------|----------------------12-----------------------|
A||---------------------------|-----------------------------------------------|
E||---------------------------|-----------------------------------------------|

E||-----------------|-------------------|-----------------------------|
B||-----13-12-13----|-------------------|-----------------------------|
G||-7/9-------------|-------16-14-16----|-------14-12-14----11-12-9---|
D||-----------------|-12/14-------------|-10/12-----------------------|
A||-----------------|-------------------|-----------------------------|
E||-----------------|-------------------|-----------------------------|

E||---------------------------------------------------------|
B||----------------------------------------------------8----|
G||-11-12/14--11-12-9-----11-12/14------11-12--------9------|
D||------------------------------------------------9--------|
A||----------------------------------------------7----------|
E||---------------------------------------------------------|
Добавлено: 14.03.2016
Другие материалы по этой песне:
  • Аккорды и текст

Страница создана 14.03.2016
http://primanota.ru/mark-knopfler/shes-gone-chords.htm
Привет, Гость.
Предлагаем пройти революционный курс по гитаре.
Подарок от PrimaNota.Ru, забирай!