PrimaNota.ru - самый крупный в мире бесплатный архив песенных текстов, аккордов, табулатур и нот


Mark Knopfler - Layla Live - таба, видео

Регистрация Запомнить меня
Войти через:  Facebook Google Twitter Vk Yandex Mail.ru

Mark Knopfler - Layla Live - таба, видео

Печатать
Просмотров: 171
-------------------------------------------------------------------------------
                             Layla Live - Mark Knopfler
-------------------------------------------------------------------------------
Tabbed by: Sean Sullivan
E-mail: themindsnexus@hotmail.com

Tuning: Standard



http://www.youtube.com/watch?v=kQVvF0AeRLI



   3:05
E|---------------------------------------------------|
B|----------3~~--------------------------------------|
G|------3h5b-------5--7-5---5------------------------|
D|--3h5----------5--------7--------------------------|
A|--------------3------------------------------------|
E|---------------------------------------------------|

   3:09
E|-------------------------------------------------------------|
B|------------------------5-6p5--------------------------------|
G|---7h10~~-7-10~-7-------5-5-5---7-7p5------------------------|
D|--x-------------------5-------5-7-7p5------------------------|
A|-------------------------------------------------------------|
E|-------------------------------------------------------------|

    3:13
E|-------------------------------------------------------------|
B|--------------------------------------10---------------------|
G|---7h10~--12-------10-12-12~~---12/13------------------------|
D|--x----------12~~--------------------------------------------|
A|-------------------------------------------------------------|
E|-------------------------------------------------------------|

   3:16                                                      
E|-------------------------------------------------------------------------|
B|-------10--------10--------10-----11~~~-10-----------10-(13)-13b(15)~~---|
G|-13p12-----13p12-----13p12-----13----------12--10-12b(14)----------------|
D|-------------------------------------------------------------------------|
A|-------------------------------------------------------------------------|
E|-------------------------------------------------------------------------|

    3:21
E|-----13p10----12p10----------------------------------------------------|
B|--10-------10-------13p12p10-10-13b(15)--10-13~~---11-10---------------|
G|---------------------------------------------------------12-10-12-10~--|
D|-----------------------------------------------------------------------|
A|-----------------------------------------------------------------------|
E|-----------------------------------------------------------------------|

   3:27                                           3:33
E|------------13-------------------------------------------------------------------------------|
B|--13-----(12)---15--15b(17)r15--13--(15)13---------------------------------------------------|
G|-x---14------------------------------------14--------12h14p13p12----12h13h14p12--14----------|
D|---------------------------------------------------12------------15-----------------12~------|
A|----------^harmonics-----------------------------12------------------------------------------|
E|---------------------------------------------------------------------------------------------|

    3:37
E|-------------------------------------------------------------|
B|-----------3~-------5-3~----5-3~-----------------------------|
G|-------3h5----x-5-x-------5----------------------------------|
D|-----3----------------------------3-x--5--x------------------|
A|--3-------------------------------1-x--3--x------------------|
E|-------------------------------------------------------------|

   3:44
E|----------------------------------------------------------------|
B|------------7h8h9h10p9--10--------------------------------------|
G|------7h8h9-----------10--9-10~-7---9b--7-7~---7----5-5----7----|
D|----7-------------------------------9b--7------5----5-5--7------|
A|-7h8------------------------------------------------------------|
E|----------------------------------------------------------------|
Добавлено: 13.07.2013
Другие материалы по этой песне:
  • Аккорды и текст

Страница создана 13.07.2013
http://primanota.ru/mark-knopfler/layla-live-chords.htm
Привет, Гость.
Предлагаем пройти революционный курс по гитаре.
Подарок от PrimaNota.Ru, забирай!