PrimaNota.ru - самый крупный в мире бесплатный архив песенных текстов, аккордов, табулатур и нот


Mark Knopfler - Gator Blood - текст песни, таба, видео

Регистрация Запомнить меня
Войти через:  Facebook Google Twitter Vk Yandex Mail.ru

Mark Knopfler - Gator Blood - текст песни, таба, видео

Печатать
Просмотров: 142
Авторы музыки: Mark Knopfler
Авторы текста: Mark Knopfler
Title: Gator Blood
       Mark Knopfler
Album: Privateering (2012)

corrections to d.pehlke@hotmail.de

Capo I 

|----------------------------------|
|----8-10-10\8--------8-10---------|
|--9-----------9----9------9\7/9---|
|----------------7---------------7-|    2x
|----------------------------------|
|----------------------------------|

A
|---------------------------------------------------------|
|-----------------------8-10-10------------------10\8-----|
|---------------------9-------------------------------9---|
|-------------------------------------------------------7-|
|---------------------------------------------------------|
|---------------------------------------------------------|
Hammer on a skillet               up they come
 
|-----------------------------------------------------------|
|--------------------8-10-10--------------------------------|
|------------------9--------------------------------9\7/9---|
|---------------------------------------------------------7-|
|-----------------------------------------------------------|
|-----------------------------------------------------------|
Showman whanging               on a ballyhoo drum 

|----------------------------------------------------------|
|--------------------8-10-10----------------------10\8-----|
|------------------9-----------------------------------9---|
|--------------------------------------------------------7-|
|----------------------------------------------------------|
|----------------------------------------------------------|
Watch out people               I'm a greedy man 


Swallowed all the fishes in the frying pan

A                       Asus4        A7      A
|----------------------------------------------|
|----------------------------------8~~~~~~-----|
|-7/9-9-9-9-9-9-9-9-9-9-7-7-7-7-7--------------|
|----------------------------------------------|
|----------------------------------------------|
|----------------------------------------------|
Blood,           gator blood, I got gator blood


Chicken on a hotplate gobbledegook
Come on up, honey and take a look
Mighty fine weather this time of year
Shake a tail feather you chicken you hear
                                     |----------------------------------|
                                     |----8-10-10\8--------8-10---------|
                                     |--9-----------9----9------9\7/9---|
                                     |----------------7---------------7-|
                                     |----------------------------------|
                                     |----------------------------------|
Blood, gator blood, I got gator blood

Chicken on a hotplate it's gonna dance
Gonna lose these chickens my first chance
Don't you know I'm a flim flam man
A chicken show it ain't worth a damn
Gator blood, I got gator blood

  (Full Bend)              (Full Bend)              (Full Bend)          (Release)   (Quarter Bend)
|-11b12--12--12-12--12-12--11b12--12--12-12--12-12--11b12--12--12-12--12-12b11---------------------|
|--------------------------------------------------------------------------------------------------|
|--------------------------------------------------------------------------------------------------|
|-------------------------------------------------------------------------------------10b11--------|
|--------------------------------------------------------------------------------------------------|
|--------------------------------------------------------------------------------------------------|

I got a country boy, he's a bird who sings
Butter paddle, buck'n wing
Kid's got a winner bonafide hit
I'm gonna have my dinner on a spit
Blood, gator blood, I got gator blood

Hoopla, humbug, howdy-do
Gonna make you into chicken stew
Alligator in the mud
Don't you know I got gator blood
Gator blood, I got gator blood

  (Full Bend)              (Full Bend)              (Full Bend)          (Release)   (Quarter Bend)
|-11b12--12--12-12--12-12--11b12--12--12-12--12-12--11b12--12--12-12--12-12b11---------------------|
|--------------------------------------------------------------------------------------------------|
|--------------------------------------------------------------------------------------------------|
|-------------------------------------------------------------------------------------10b11--------|
|--------------------------------------------------------------------------------------------------|
|--------------------------------------------------------------------------------------------------|

Never lend a dollar to your good friend Tom
Hogwash Holler is where he's from
If you got treasure all in a vault
And he gets you, baby that's your own fault

                              |----------------------------------|
                              |----8-10-10\8--------8-10---------|
                              |--9-----------9----9------9\7/9---|
                              |----------------7---------------7-|
                              |----------------------------------|
                              |----------------------------------|
Gator blood, I got gator blood

|-------|
|-10~~~-|
|--9~~~-|
|-------|
|-------|
|-------|
Добавлено: 20.07.2013
Другие материалы по этой песне:
  • Аккорды и текст

Страница создана 20.07.2013
http://primanota.ru/mark-knopfler/gator-blood-chords.htm
Привет, Гость.
Предлагаем пройти революционный курс по гитаре.
Подарок от PrimaNota.Ru, забирай!