PrimaNota.ru - самый крупный в мире бесплатный архив песенных текстов, аккордов, табулатур и нот


Mark Knopfler - An American Hero - текст песни, таба, видео

Регистрация Запомнить меня
Войти через:  Facebook Google Twitter Vk Yandex Mail.ru

Mark Knopfler - An American Hero - текст песни, таба, видео

Печатать
Просмотров: 204
"An American Hero"
Mark Knopfler - Album: Wag The Dog

Tab door: A.de Bruin (dux@tabsrus.nl)


AKKOORDEN:

       (EADGBe)
Em    = 022000 
Dm    = xx0231
Am    = x02210
E     = 022100
D     = xx0232
Esus4 = 022200
G     = 320003
F     = 133211
C     = x32010


   (Am) - (Piano arr. voor gitaar)

met military style drum snare
e|----------------|------12--10---|-------------|-10-----10--8------------
B|----------------|---------------|-------------|-------------------------
G|----------------|---9-----------|-------------|-----9-------------------
D|----------------|---------------|-------------|-------------------------
A|----------------|---------------|-------------|-------------------------
E|----------------|---------------|-------------|-------------------------




   Am             G          F               C               Em          Am
e|-------------|-----------|---------------|---------------|-----------|
B|-------------|-----------|---------------|-1/3-3/5-5/8---|-8--8--5---|
G|--2----4--5--|--4-4--5---|-2-------------|---------------|--------5~~|
D|-------------|-----------|---------------|---------------|-----------|
A|-------------|-----------|---------------|---------------|-----------|
E|-------------|-----------|---------------|---------------|-----------|

   Dm           E        Am         D         Esus4    E
e|------------|------------------|-----------|------------------||
B|-----5--6---|-5--5-------------|-----------|------------------||
G|--7---------|-------7--5-------|--7---7----|-----------------*||
D|------------|-7--6---------7---|---------7/|9----------------*||
A|------------|------------------|-----------|------------------||
E|------------|------------------|-----------|------------------||





  F               C        Am        F                             C
e|-8-8-----8-----|-8-------8-------|----------8-8-------8--------|---------|
B|-8-8h10--8-----|-8-8-------------|----------8(8)h10---8-----8--|---------|
G|------------9--|---7h9---7-------|-----------------------9-----|--9------|
D|---------------|------------10---|-----------------------------|---------|
A|---------------|-----------------|-----------------------------|---------|
E|---------------|-----------------|-----------------------------|---------|

  F                          C          Am       F                         E
e|----------8------8-------|-8-----------------|------------------------|-||
B|---------(8)h10--8-------|-8-8-----8---------|-------------6----------|-||
G|--------------------9----|--(7)h9--7---------|----------5------5------|-||
D|-------------------------|------------10\9---|-------7-------------7--|-||
A|-------------------------|-------------------|------------------------|-||
E|-------------------------|-------------------|------------------------|-||




CODA
  Am                               Am
                 (Piano arr.)________________________________________> 
e|--------------|------12--10----|------------------|-10-----10---8----|
B|--------------|----------------|------------------|------------------|
G|--2-----------|--9-------------|------------------|-----9------------|
D|--2-----------|----------------|------------------|------------------|
A|--0-----------|----------------|------------------|------------------|
E|--------------|----------------|------------------|------------------|

  Am                           Am                                 (Am)
                 (Piano arr.)________________________________________> 
e|---5--------|------12--10---|----------------|-10---7--8------|---------||
B|------------|---9-----------|----------------|----------------|---------||
G|------------|---------------|----------------|------------7---|---------||
D|------------|---------------|----------------|----------------|---------||
A|------------|---------------|----------------|----------------|---------||
E|------------|---------------|----------------|----------------|---------||

Добавлено: 05.06.2013
Другие материалы по этой песне:
  • Аккорды и текст

Страница создана 05.06.2013
http://primanota.ru/mark-knopfler/an-american-hero-chords.htm
Привет, Гость.
Предлагаем пройти революционный курс по гитаре.
Подарок от PrimaNota.Ru, забирай!