PrimaNota.ru - самый крупный в мире бесплатный архив песенных текстов, аккордов, табулатур и нот


Mark Foggo - Hello - аккорды и текст, видео

Регистрация Запомнить меня
Войти через:  Facebook Google Twitter Vk Yandex Mail.ru

Mark Foggo - Hello - аккорды и текст, видео

Печатать
Просмотров: 121
Hello
Mark Foggo
Mark Foggo - Hello
song: https://www.youtube.com/watch?v=5Q-A6gO6xPk

INTRO
C
Hello Ska People
Bb F
G
C
 Hello Ska People
Bb F
G
Ooooh

MAIN RIFF (4x)
   C               Am        F               G
e|-----------------------------------------------------------|
B|-----------------------------------------------------------|
G|-------------0---2----2--------------------0-0-2-0---------|
D|---------2----------2------3---3---2---0-------------3-2-0-|
A|-3---3-----------------------------------------------------|
E|-----------------------------------------------------------|
Come on you ska people, get on your skankin' feet, let's move to rocksteady beat
Let's go skankin' down ska-street

VERSE 1
C            Am              Bb      G
 Ska Ska Ska Ska Ska Ska Ska Skaahaaa
C                         
 Check it out Check it out Check it out 
         Am
Check it out Check it out Check it out Check it out!
Bb    G
C             Am              Bb     G
 Ami ami ami ami ami ami ami amigo's!
C                         
 Check it out Check it out Check it out 
         Am
Check it out Check it out Check it out Check it out!
Bb    G

PRE-CHORUS
F                      G
 I'm at the start of a ska extravaganza,
F                        G
 Get up and down on your knees and your hands yeah

CHORUS (4x)
C   G
F
 Check it out this thing it's called ska


MAIN RIFF (4x)
   C               Am        F               G
e|-----------------------------------------------------------|
B|-----------------------------------------------------------|
G|-------------0---2----2--------------------0-0-2-0---------|
D|---------2----------2------3---3---2---0-------------3-2-0-|
A|-3---3-----------------------------------------------------|
E|-----------------------------------------------------------|

VERSE 2
C            Am              Bb      G
 Ska Ska Ska Ska Ska Ska Ska Skaahaaa
C                         
 Check it out Check it out Check it out 
         Am
Check it out Check it out Check it out Check it out!
Bb    G
C               Am                  Bb      G
 Tufa tufa tufa tufa tufa tufa tufa whooo.. too
C                         
 Check it out Check it out Check it out 
         Am
Check it out Check it out Check it out Check it out!
Bb    G

PRE-CHORUS
F                      G
 I'm at the start of a ska extravaganza,
F                        G
 Get up and down on your knees and your hands yeah

CHORUS (4x)
C   G
F
 Check it out this thing it called ska

VERSE 3
C                            Am
 Tudulup tudulup tudulup tudulup tudulup tudulup tudu ska!
Bb     G
C                            Am
 Tudulup tudulup tudulup tudulup tudulup tudulup tudu ska!
Bb     G
C                            Am
 All ear all ear all ear all ear all ear all ear all ska!
Bb     G
C                            Am      
 Whooooooooooooooooooooooooooooooooooooooooooooooooo ska!
Bb     G

MAIN RIFF (2x)
   C               Am        F               G
e|-----------------------------------------------------------|
B|-----------------------------------------------------------|
G|-------------0---2----2--------------------0-0-2-0---------|
D|---------2----------2------3---3---2---0-------------3-2-0-|
A|-3---3-----------------------------------------------------|
E|-----------------------------------------------------------|

PRE-CHORUS
F                    G
 I'm at the end of a ska extravaganza,
F                        G
 Get up and down on your knees and your hands yeah.

CHORUS (8x)
C   G
F
 Check it out this thing it called ska

End on C
Ska!
Добавлено: 10.07.2015
Другие материалы по этой песне:
  • Аккорды и текст

Страница создана 10.07.2015
http://primanota.ru/mark-foggo/hello-chords.htm
Привет, Гость.
Предлагаем пройти революционный курс по гитаре.
Подарок от PrimaNota.Ru, забирай!