PrimaNota.ru - самый крупный в мире бесплатный архив песенных текстов, аккордов, табулатур и нот


Marjorie Fair - Waves - текст песни, таба, видео

Регистрация Запомнить меня
Войти через:  Facebook Google Twitter Vk Yandex Mail.ru

Marjorie Fair - Waves - текст песни, таба, видео

Печатать
Просмотров: 133
WAVES BY MARJORIE FAIR
TABBED BY: gerdnerd


INTRO
e-----------------       ------------|
B-----------------       ------------|
G--6-8-9-8--------       --6-8-9-9---|
D--6-6-6-6--------  3X   --6-6-6-6---|
A--7-7-7-7--------       --7-7-7-7---|
E-----------------       ------------|

VERSE
e-----------------|
B-----------------|
G--6-8-9-8--------|
D--6-6-6-6--------|
A--7-7-7-7--------|
E-----------------|


 But it's so hard,     watching you fade away
e---------3---2-----3--2---------------------|
B---------1---1-----1--1---------------------|
G---------2---2-----2--2------------------1--|
D---------2---2-----2--2------------------2--|
A-----------------------------------------2--|
E--------------------------------------------|


CHORUS
 These are the waves that we've talked about silly boy.........
e-------------------------------------------------------------|
B-------------------------------------------------------------|
G-8-8-8-8-8-8-8-8-8----------------------------9-----8--------|
D-6-6-6-6-6-6-6-6-6----------------------------6-----6--------|
A-7-7-7-7-7-7-7-7-7----------------------------7-----7--------|
E-------------------------------------------------------------|


what i have said... it's all in your head
-----0-0-0-0-0-0-0-0-0-0-0---0----------|
-----0-0-0-0-0-0-0-0-0-0-0---1----------|
-----6-6-6-6-6-5-5-5-5-5-5---2----------|
-----x-x-x-x-x-x-x-x-x-x-x---2----------|
-----4-4-4-4-4-3-3-3-3-3-3---0----------|
-----x-x-x-x-x-x-x-x-x-x-x---0----------|

links to the band
http://www.marjoriefair.com/


------------------heydoyouthinkshelikesme@yahoo.com---------------
Добавлено: 28.04.2012
Другие материалы по этой песне:
  • Аккорды и текст

Страница создана 28.04.2012
http://primanota.ru/marjorie-fair/waves-chords.htm
Привет, Гость.
Предлагаем пройти революционный курс по гитаре.
Подарок от PrimaNota.Ru, забирай!