PrimaNota.ru - самый крупный в мире бесплатный архив песенных текстов, аккордов, табулатур и нот


Marius Muller - Leave - таба, видео

Регистрация Запомнить меня
Войти через:  Facebook Google Twitter Vk Yandex Mail.ru

Marius Muller - Leave - таба, видео

Печатать
Просмотров: 87
Уроки эстрадного вокала в Санкт-Петербурге
-----------------------------------------------------------------------------
                             Leave - Marius Muller
-----------------------------------------------------------------------------
Tabbed by: iKjetil
Email:

Tuning: eb Bb Gb Db Ab Eb (half step down)

e|-----------3--------|-----------3-------|-----------3---------------------|
B|-----3-5-----5------|-----3-5-----5-----|-----3-5-----5-------------------|
G|-3/4-----4--------4-|-3/4-----4-----4-4-|-3/4-----4-----4-4-4-------------|
D|------------------2-|---------------2-2-|---------------2-2-2-------------|
A|--------------------|-------------------|---------------------------------|
E|--------------------|-------------------|---------------------------------|
              ~~~~~~~~                                      ~~~~~~~~
e|------------3-------|-----------3-----------------------------------------|
B|-----3-5------------|-----3-5-----5---3-5-------------5-3-5---------------|
G|-3/4-----4--4-------|-3/4-----4-----4-----------------4-2-4---------------|
D|--------------------|---------------------5-2-----2-----------------------|
A|--------------------|-------------------------2-5-------------------------|
E|--------------------|-------------------------------0---------------------|
                                       ~~~~~~~~
e|-----------3-------------------------------------------|
B|-----3-5-----5---3-5-------------5-3-5-----------------|
G|-3/4-----4-----4-----------------4-2-4-----------------|
D|---------------------5-2-----2-------------------------|
A|-------------------------2-5---------------------------|
E|-------------------------------0-----------------------|

e|-----------3-----------5-3-----------------------------|
B|-----3-5-----5---3-5-------5---3-5---5-3-5-------------|
G|-3/4-----4-----4-----4-------4-------4-2-4-------------|
D|-------------------------------------------------------|
A|-------------------------------------------------------|
E|-----------------------------------0-------------------|

************************************

| /   slide up
| \   slide down
| h   hammer-on
| p   pull-off
| ~   vibrato
| +   harmonic
| x   Mute note
| b   Bend
| pb  Pre-bend
| br  Bend release
| pbr Pre-bend release
| brb Bend release bend

************************************
Добавлено: 19.07.2013
Вам также может быть интересно:
Другие материалы по этой песне:
  • Аккорды и текст

Страница создана 19.07.2013
http://primanota.ru/marius-muller/leave-chords.htm
Привет, Гость.
Предлагаем пройти революционный курс по гитаре.
Подарок от PrimaNota.Ru, забирай!