PrimaNota.ru - самый крупный в мире бесплатный архив песенных текстов, аккордов, табулатур и нот


Maritime - Call Me Home - таба, видео

Регистрация Запомнить меня
Войти через:  Facebook Google Twitter Vk Yandex Mail.ru

Maritime - Call Me Home - таба, видео

Печатать
Просмотров: 58
This tab is for the song Call Me Home from Maritime's 2005 album We The Vehicles.
Note: the low notes in the verse for guitar 2 change each time it's played.

Verse 1 pt. 1 guitar 1 only (Lyrics start after second time through)

e|-----------0-----|-----------0-----|-----------0-----|---4-2-0-----|
B|-------2-------2-|-------2-------2-|-------2-------2-|---------2-0-|
G|-----------------|-----------------|-----------------|-------------|
D|---2-----2-------|---2-----2-------|---2-----2-------|-------------| x 5
A|-4---4-------4---|-2---2-------2---|-0---0-------0---|-------------|
E|-----------------|-----------------|-----------------|-2-----------|

e|-----------0-----|-----------0-----|-------2-------2-------2---------|
B|-------2-------2-|-------2-------2-|---4-------4-------4-------4---2-|
G|-----------------|-----------------|-4---4---4---4---4---4---4---4---|
D|---2-----2-------|---2-----2-------|---------------------------------|
A|-0---0-------0---|-0---0-------0---|---------------------------------|
E|-----------------|-----------------|---------------------------------|

Verse 1 pt. 2 guitar 1 ("We are continental drifters...")

e|-----------0-----|-----------0-----|-----------0-----|---4-2-0-----|
B|-------2-------2-|-------2-------2-|-------2-------2-|---------2-0-|
G|-----------------|-----------------|-----------------|-------------|
D|---2-----2-------|---2-----2-------|---2-----2-------|-------------| x 3
A|-4---4-------4---|-2---2-------2---|-0---0-------0---|-------------|
E|-----------------|-----------------|-----------------|-2-----------|

e|-----------0-----|-----------0-----|
B|-------2-------2-|-------2-------2-|
G|-----------------|-----------------|
D|---2-----2-------|---2-----2-------|
A|-0---0-------0---|-0---0-------0---|
E|-----------------|-----------------|

Verse 1 pt. 2 Guitar 2 ("We are continental drifters...")

e|---0---0---4---|-----------2---|-----------0-----|-0---------|
B|-2---2---2-----|---4---4-------|---2---2---------|---4-2---0-|
G|---------------|-4---4---4-----|-2---2---2-------|-------1---|
D|---------------|-------------2-|---------------1-|-----------| x 3
A|-------------4-|---------------|-------------4---|-----------|
E|---------------|---------------|-----------------|-----------|

e|---0---4-0---|-------------|
B|-2---2-----2-|---0---4-0---|
G|-------------|-1---1-----1-|
D|-------------|-------------|
A|-------------|-------------|
E|-------------|-------------|

Chorus 1st time guitar 1 ("Call me home...")

e|-----------------|-----------------|-------0---------|-------0---------|
B|-------0---------|-------0---------|-----------0-----|-----------0-----|
G|---1-------1---1-|---1-------1---1-|---1-----------1-|---1-----------1-|
D|-----------------|-----------------|-----------------|-----------------|
A|-----------------|-----------------|-----------------|-----------------|
E|-4---4---4---4---|-4---4---4---4---|-2---2---2---2---|-2---2---2---2---|

e|-------2---------|-------2---------||-----------------|-----------------|
B|-----------0-----|-----------0-----||-------0---------|-------0---------|
G|---1-----------1-|---1-----------1-||---1-------1---1-|---1-------1---1-|
D|-----------------|-----------------||-----------------|-----------------|
A|-2---2---2---2---|-2---2---2---2---||-4---4---4---4---|-3---3---3---3---|
E|-----------------|-----------------||-----------------|-----------------|

e|-----------------|-----------------|--------0--------|
B|-------2---------|-------2---------|--------2--------|
G|---1-------1---1-|---1-------1---1-|--------2--------|
D|-----------------|-----------------|--------2--------|
A|-2---2---2---2---|-1---1---1---1---|--------0--------|
E|-----------------|-----------------|-----------------|

Chorus 1st Time Guitar 2 ("Call me home...")

e|---4---2---2---||-x-x-x-x-x-x-x-x-|-------0---4-4---|
B|---5---4---4---||-2-2-2-4-2-5-2-2-|-5-5-5-7-5-5---5-|
G|---4---4---4---||-2-2-2-2-2-2-2-2-|-------4---4-----|
D|---------------||-----------------|-----------------|
A|---------------||-----------------|-----------------|
E|---------------||-----------------|-----------------|

e|-------0---7---|----------0-----9--------|-12-12----9---------|
B|-7-7-7-9-7-7-7-|-9--9--9--12-9--9--9--9--|-9------9---9-12----|
G|-------9---9---|----------11----11-------|--------------------|
D|---------------|-------------------------|--------------------|
A|---------------|-------------------------|--------------------|
E|---------------|-------------------------|--------------------|

Solo 1st time guitar 1 is first part of verse 1 played twice

Solo 1st time guitar 2

e|------------------------------------|-----------|
B|---------12-9-----------------------|-----------|
G|-------9------11-9----9-9s11--------|---9-------|
D|-11-11-------------11----------9h11-|-----13-11-| x 2
A|------------------------------------|-9---------|
E|------------------------------------|-----------|

Verse 2 is same as verse 1 pt. 2 for guitar 1 (no ending riff) and guitar 2 both played three times
("You are the chorus..."

Chorus 2nd time for guitar 1 is the same as 1st play twice ("So call me...")

Chorus 2nd time guitar 2 ("So call me...")

e|---4---2---4---||-x-x-x-x-x-x-x-x-|-------0---4-4---|
B|---5---4---5---||-2-2-2-4-2-5-5-2-|-5-5-5-7-5-5-5-5-|
G|---4---4---4---||-2-2-2-2-2-2-2-2-|-------4---4-4---|
D|---------------||-----------------|-----------------|
A|---------------||-----------------|-----------------|
E|---------------||-----------------|-----------------|

e|-------0-7-7---|----------0-----9--------|-12-12----9---------|
B|-7-7-7-9-----7-|-9--9--9--12-9--9--9--9--|-9------9---9-12----|
G|-------9-------|----------11----11-------|--------------------|
D|---------------|-------------------------|--------------------|
A|---------------|-------------------------|--------------------|
E|---------------|-------------------------|--------------------|


e|---4-----4-2-----4-2-4---||-x-x-x-x-x-x-x-x-|-------0---4-4---|
B|---5---4---4---4-5-----0-||-2-2-2-4-2-5-5-2-|-5-5-5-7-5-5-5-5-|
G|---4-4-----4-4---4-------||-2-2-2-2-2-2-2-2-|-------4---4-4---|
D|-------------------------||-----------------|-----------------|
A|-------------------------||-----------------|-----------------|
E|-------------------------||-----------------|-----------------|

e|-------0-7-7---|----------0-----9--9-----|-15-|
B|-7-7-7-9-----7-|-9--9--9--12-9--9--9--9--|-12-|
G|-------9-------|----------11----11-11----|----|
D|---------------|-------------------------|----|
A|---------------|-------------------------|----|
E|---------------|-------------------------|----|

Outro is solo for guitars one and two played seven times

Thanks for reading and good luck!
Добавлено: 17.11.2015
Другие материалы по этой песне:
  • Аккорды и текст

Страница создана 17.11.2015
http://primanota.ru/maritime/call-me-home-chords.htm
Привет, Гость.
Предлагаем пройти революционный курс по гитаре.
Подарок от PrimaNota.Ru, забирай!