PrimaNota.ru - самый крупный в мире бесплатный архив песенных текстов, аккордов, табулатур и нот


Marisa Monte - Depois - таба, видео

Регистрация Запомнить меня
Войти через:  Facebook Google Twitter Vk Yandex Mail.ru

Marisa Monte - Depois - таба, видео

Печатать
Просмотров: 28
DEPOIS

Marisa Monte


   A                    C#7
Depois de sonhar tantos anos
                  F#m
De fazer tantos planos
                  A7
De um futuro pra nós
   D                   E
Depois de tantos desenganos
          A                        A7
Nós nos abandonamos como tantos casais
  D          E         A  A7
Quero que você seja feliz
 D            E
Hei de ser feliz também


   A                  C#7
Depois de varar madrugada
               F#m
Esperando por nada
                    A7
De arrastar-me no chão
    D                    E
Em vão tu viraste-me as costas
                  A
Não me deu as respostas
                    A7
Que eu preciso escutar
  D          E          A  A7
Quero que você seja melhor
 D             E
Hei de ser melhor também


     A                 C#7
Nós dois já tivemos momentos
                  F#m
Mas passou nosso tempo
               A7
Não podemos negar
     D                  E
Foi bom nós fizemos histórias
                A
Pra ficar na memória
              A7
E nos acompanhar
  D          E           A  A7
Quero que você viva sem mim
D             E
Eu vou conseguir também


   A                     C#7
Depois de aceitarmos os fatos
                    F#m
Vou trocar seus retratos
                      A
pelos de um outro alguém
     D                  E
Meu bem vamos ter liberdade
                A
Para amar à vontade
                    A7
Sem trair mais ninguém
  D          E         A  A7
Quero que você seja feliz
 D            E
Hei de ser feliz também
   D   A
Depois
Dedilhado padrão:

    A               C#7
E|------------------------------------------
B|----------2----------------2--------------
G|------2-------2--------4-------4----------
D|----2---2---2---2----3---3---3---3--------
A|--0----------------4----------------------
E|------------------------------------------


   F#m               A7
E|----------2-------------------------------
B|------2-------2----------2----------------
G|----2---2---2---2------0---0--------------
D|---------------------2--------------------
A|-------------------0----------------------
E|--2---------------------------------------


    D                E
E|----------2----------------0--------------
B|------3-------3--------0-------0----------
G|----2---2---2---2----1---1---1---1--------
D|--0---------------------------------------
A|------------------------------------------
E|-------------------0----------------------


    A                A7
E|------------------------------------------
B|--------2----------------2----------------
G|------2---2---2--------0---0---0----------
D|----2-------2---2----2-------2---2--------
A|--0----------------0----------------------
E|------------------------------------------


    D        E        A
E|--------2--------0------------------------
B|------3--------0------------2-------------
G|----2--------1----------2-------2---------
D|--0-------------------2---2---2---2-------
A|--------------------0---------------------
E|-----------0------------------------------


    D         E
E|--------2------0--------------------------
B|------3----------0------------------------
G|----2--------1----------------------------
D|--0---------------------------------------
A|------------------------------------------
E|-----------0------------------------------
Добавлено: 13.06.2016
Другие материалы по этой песне:
  • Аккорды и текст

Страница создана 13.06.2016
http://primanota.ru/marisa-monte/depois-chords.htm
Привет, Гость.
Предлагаем пройти революционный курс по гитаре.
Подарок от PrimaNota.Ru, забирай!