PrimaNota.ru - самый крупный в мире бесплатный архив песенных текстов, аккордов, табулатур и нот


Mario Castelnuovo Tedesco - Capriccio Diabolico Homage To Paganini - таба, видео

Регистрация Запомнить меня
Войти через:  Facebook Google Twitter Vk Yandex Mail.ru

Mario Castelnuovo Tedesco - Capriccio Diabolico Homage To Paganini - таба, видео

Печатать
Просмотров: 84
Capriccio diabolico (Omaggio a Paganini), Op 85
M. Castelnuovo Tedesco (1895-1968)

tuning - DADGBE
 
E|----------------------------|----------------------------|----------------------------|
B|---10-----------------------|--------------6-------------|--2----------------3^2----2-|
G|-------10--10--7--7--4--4---|----2---------7-------------|--2--------3^2---2------2---|
D|---7------------------------|--------0-----7-------------|--2-----2------2------------|
A|---0---8-------5-----2------|----0---------5-------------|--0--0----------------------|
D|---0------------------------|--------0-----0-------------|----------------------------|


E|----------------------------|---10---6--6----------------|---------------10-----------|
B|-6^5---5-10^8---8-13^11 -11-|--------------8--8--5--5----|-----3---------5------------|
G|-----6--------9--------12---|---7----3-------------------|----------0----7------------|
D|----------------------------|---8----------5-----2-------|-----0---------8------------|
A|----------------------------|----------------------------|---------------5------------|
D|----------------------------|---5------------------------|----------5----5------------|


E|--5-------------------------|----------------------------|----------------------------|
B|--3-------------------------|----------3^1---1--6^5------|----8----8----8----8--------|
G|--2-------------------------|--3^2---2-----2-----------9-|----9----9----7----5--------|
D|--3------2^0---0-5^3---0^3--|------3----------------10---|----10---10---8----7--------|
A|--0----0-----0--------------|----------------------------|----------------------------|
D|--0--0----------------------|----------------------------|----------------------------|


E|---3---3---3---3---3---3----|---3---3---3---3---3---3----|---3---3---3---3---3---3----|
B|---------------5---3--------|-------5---3-----------5----|---3------------------------|
G|---3---5---3---5---3---5----|---3---5---3---5---3---5----|---3---5---3---5---3---2----|
D|---5---7---5-----------7----|---5-----------7---5--------|-------7---5---7---5---3----|
A|----------------------------|----------------------------|----------------------------|
D|----------------------------|----------------------------|----------------------------|


E|-3--------------------------|----------------------------|----------------------------|
B|--------13-11-10-8-6/8-11^8-|--8^6-----------------------|----------------------------|
G|-0-11-12--------------------|--7---7^9-10----------------|----------------------------|
D|-1--------------------------|--0-------------------------|----------------------------|
A|----------------------------|--------------5--7--8-------|----0-----------------------|
D|----------------------------|--8-------------------------|-------7--8--10---3---2-----|


E|----------------------------|--5---------------10\8-6^5--|-5------------------8\6-5^3-|
B|----------------------------|----6---6----9^10-----------|---8-5^6--8-----7^8---------|
G|----------------------------|----------------------------|-----5------5---------------|
D|------3-----3-----3-----3---|------7---------------------|----------5-----------------|
A|---------0-----------0------|----------------------------|--------------7-------------|
D|---0-----------0------------|--0-------0-----------------|-0--------------------------|


E|--3-------------------------|----------------------------|----------------------------|
B|----6-3-5--6----5-8-6-------|--3^2-5-2-------------------|----------------------------|
G|------3------3--------9--7--|------0----2------0-2-3-5-7-|----0------------5-3-2-0----|
D|-----------3------0---------|-----------2--5-------------|----1--7^5^4-5-7------------|
A|----------------------------|----------------0-----------|----1-----------------------|
D|--0-------------------------|--0-------------------------|----1-----------------------|


E|----------------------------|----------------------------|------------------10\8-6^5--|
B|----------------------------|----------------------------|-----6---6---9^10-----------|
G|--0-------------------------|----------------------------|----------------------------|
D|----3-0-2-3----0-2-3-5-7----|--0----------7--0-----------|-------7--------------------|
A|--1----------0--------------|----5/7-8^10-------3-0-3----|--5--------0----------------|
D|----------------------------|--5-------------3----5------|--0-------------------------|


E|-------5^3------3^1-----1^0-----------------|-----------------------------------------|
B|-----------5^6------3^5------1^3--5^3-------|---------------------------8\6---5^3-----|
G|-------5---7----3---5---2----3--------3/5---|------7---------------6^7----------------|
D|----------------------------------5---------|------------------8----------------------|
A|--------------------------------------------|------------8----------------------------|
D|--------------------------------------------|------0--8-----8-------------------------|


E|--------------------------------------------|-----------------------------------------|
B|---3^1--------------------------------------|-----------------------------------------|
G|--------2^3--5^3--0^2---3^2-----0--2^0------|---0^2--3--5--7^5--------------5-7-5-----|
D|---3---------2---------------3----------2^3-|---0---------------8--7--5^7-8-------8-7-|
A|------------------------5----------3--------|---1-------------------------------------|
D|--------------------------------------------|-----------------------------------------|


E|----------------------------|----------------------------|----------------------------|
B|----------------------------|----------------------------|-----------------6--6--6----|
G|--------3----3----3---------|---3-----3--3-----7---7---7-|---7-----7--7----7--5--3----|
D|---5----5----3----1---------|---0-----1--0-----8---7---5-|---0-----5--0----8--7--5----|
A|--------6----5----3---------|---1-----3--1-----10--8---6-|---8-----6--8---------------|
D|----------------------------|----------------------------|----------------------------|


E|---1----5---5---5---5---5---|---5---5---5---5---5---5----|---5---5---5---4/5-8^6-5----|
B|--------6---5-----------6---|---5-----------6---5---3----|---2---3---2-------------8--|
G|---2----7---5---7---5---7---|---5---7---5---7---5---3----|---2---3---2----------------|
D|---3------------8---7-------|-------8---7----------------|----------------------------|
A|----------------------------|----------------------------|----------------------------|
D|----------------------------|----------------------------|----------------------------|


E|-------------------2/3---6^5----3^1-------|-----1---0--1-------------5----------------|
B|--------8---8--8--------------------------|-----3---6--3-------5^6------8----6^5------|
G|--------6---7--6--------------------------|-----3---5--3------------------------------|
D|--------7---8--7--------------------------|-------------------------------------------|
A|------------------------------------------|-------------------------------------------|
D|------------------------------------------|-------------------------------------------|


E|--------------------------------------------------------------------------------------|
B|-----------5----8^6----5--------------------------------------------------------------|
G|------7---------------------7----5----3----2----3----5^3----2-------------------------|
D|-----------------------------------------------------------------5----3^2-------------|
A|--------------------------------------------------------------------------------------|
D|--------------------------------------------------------------------------------------|


E|----------------------------|----------------------------|----------------------------|
B|----------------------------|------------------8^7---7---|--10----7-7-----------------|
G|----------------------------|----------9^7---7-----7-----|-------------7-7------------|
D|--0-----2^0---0-5^4---4-----|--9^7---7-----7-------------|------------------9-9-------|
A|------0-----0-------5-------|------9---------------------|----------------------------|
D|----0-----------------------|----------------------------|----------------------------|


E|----------------------------|----------------------------|----------------------------|
B|----------------7-----------|----------------------------|-------------------7^5---5--|
G|----------------------------|--2-------------------------|--4^2---2--7^6---6-----6----|
D|-----7----0-----7-----------|--5----------------4^2---2--|------2--------7------------|
A|----------------5-----------|--0----0-5^4---0^4-----4----|----------------------------|
D|----------------0-----------|--0--0----------------------|----------------------------|


E|---7------------------------|---------------------7------|----------------------------|
B|-------8--8---5--5----------|------0---------------------|----------------------------|
G|---------------------6--6---|---------------------6------|--2-------------------------|
D|----------------------------|---------------------5------|--4-------2^0---0-5^4---4---|
A|----------------------------|-------------7-------0------|--0-----0-----0-------5-----|
D|----------------------------|----------------------------|--0---0---------------------|


E|----------------------------|----10----7--7--------------|------------------10--------|
B|------------------8^7---7---|----0------------8--8-------|------------------0---------|
G|----------9^7---7-----7-----|------------------------9-9-|------7-----0-----0---------|
D|--9^7---7-----7-------------|----0-----------------------|----------------------------|
A|------9---------------------|----------------------------|------------------7---------|
D|----------------------------|----5-----------------------|------------------5---------|


E|----5-----2--2--------------|--------------------5-------|--0-------------9--10-12-14-|
B|-----------------3--3-------|--------------------0-------|--2----9--10-12-------------|
G|----2-------------------4-4-|------2---------------------|--2-11----------------------|
D|----4-----------------------|-------------0------4-------|----------------------------|
A|----0-----------------------|----------------------------|----------------------------|
D|----0-----------------------|--------------------0-------|--2-------------------------|


E|--14^12-19-17--16-14---------------|--5-12^9-----0-----------|----------8---8--8------|
B|---------------------17--15-14-----|----------10-------------|----------10--8--6------|
G|-------------------------------16--|---------------6---------|----------10--9--7------|
D|-----------------------------------|------------------7-2----|------------------------|
A|-----------------------------------|----------------------4--|----0-------------------|
D|-----------------------------------|-------------------------|------------------------|


E|--8---8--8----5---5---5-----|---5---5--5-----8---8--8----|-8--5--5--5-|---5--1--1-1---|
B|--5---6--5----6---5---------|----------------10--8--6----|-5--6--5----|------3--1-----|
G|--5---7--5----7---5---7-----|---5---7--5-----10--9--7----|-5--7--5--7-|---5--3--2-3---|
D|----------------------8-----|---7---8--7-----------------|----------8-|---7-------5---|
A|----------------------------|----------------------------|------------|---------------|
D|----------------------------|----------------------------|------------|---------------|


E|--1--1--1-1--|--1--1--1-1---|--1--1--1-------------------|----------------------------|
B|-----3--1----|-----3--1-----|-----------------10\8-6-----|-----------------8\6--4^3---|
G|--2--3--2-3--|--2--3--2-3---|--2--3--2---9^10--------8---|--8---8--8---7^8------------|
D|--3-------5--|--3-------5---|--3--5--3-------------------|--7---8--7------------------|
A|-------------|--------------|----------------------------|--8---10-8------------------|
D|-------------|--------------|----------------------------|----------------------------|


E|----------------------------|---------------------------------------------------------|
B|--3---3--3---2/3--6\5--3-1--|------------5^3------------------------------------------|
G|--2---4--2-4----------------|--------3^5--------5^3-2^0-------0-3^2-----0-------------|
D|--4---5--4-5----------------|-------------------------------3-------------3-2^0-------|
A|----------------------------|---------------------------------------------------------|
D|----------------------------|---------------------------------------------------------|


E|--------------------------------------------|----5-5-5--|--5--1-1-1--|--1-------------|
B|--------------------------------------------|----6-5----|-----3-1----|-----3--3--3----|
G|--------------------------------------------|----7-5-7--|--5--3-2-3--|--2--4--2--2----|
D|----0-3^2----0------------------------------|--------8--|--8------5--|--3--5--3--2----|
A|--3------------3-1^0------0-3^1----0--------|-----------|------------|----------------|
D|------------------------5------------5-3-2--|--0--------|------------|----------------|


E|--------------|------5-5-5--|--5--1-1-1--|--1-----------|--------------|--------------|
B|--3-----------|------6-5----|-----3-1----|-----3--3--3--|--3-----------|--3-----------|
G|--2-----2-----|------7-5-7--|--5--3-2-3--|--2--4--2--2--|--2-----2-----|--2-----2-----|
D|--0-----5-----|----------8--|--8------5--|--3--5--3--2--|--0-----5-----|--3-----5-----|
A|-----0-----0--|-------------|------------|--------------|-----0-----0--|-----0-----0--|
D|--------------|--0----------|------------|--------------|--------------|--------------|


E|-----0--1--0--|-------------|--1---------|--1-----------|--1--3--5--3--|--1-----------|
B|--3-----------|--3----------|--1----1----|--1-----1-----|--1--3--5--3--|--1-----1-----|
G|--2--0--2--0--|--2-----2----|--2----3----|--2-----3-----|--2--3--5--3--|--2-----3-----|
D|--3-----------|--3-----5----|------------|--------------|--------------|--------------|
A|--------------|-----0----0--|-----3---3--|-----3-----3--|--------------|-----3-----3--|
D|--------------|-------------|------------|--------------|--------------|--------------|


E|--5-----0-----|--5-----0----|--5-7-8-10--|--12^10--8-7--|--5-----0-----|--5-----0-----|
B|--5-----0-----|--5-----0----|--5---------|--------------|--5-----0-----|--5-----0-----|
G|--5-----7-----|--5-----7----|--5---------|--------------|--5-----7-----|--5-----7-----|
D|--------------|-------------|------------|--------------|--------------|--------------|
A|-----7-----7--|-----7----7--|------------|--------------|-----7-----7--|-----7----7---|
D|--------------|-------------|------------|--------------|--------------|--------------|


E|--5-7-8-10--|-12^10--8-7-|-5^7--8-7-|-5--------|----------|----------|-----0--1--0----|
B|--5---------|------------|----------|---8--6^5-|-3----3---|-3----3---|--3--0--1--0----|
G|--5---------|------------|----------|----------|-2----2---|-2----2---|--2--0--2--0----|
D|------------|------------|----------|----------|-3^2--3^2-|-3^2--3^2-|--3-------------|
A|------------|------------|----------|----------|----------|----------|----------------|
D|------------|------------|----------|----------|----------|----------|----------------|


E|-----------|--------------|--------------|-----0--1--0--|-------------|---------------|
B|--3----3---|--3-----3-----|--3-----3-----|--3--0--1--0--|-3-----3-----|-3-------------|
G|--2----2---|--2-----2-----|--2-----2-----|--2--0--2--0--|-2-----2-----|-0-3-3---------|
D|--3^2--3^2-|--3-----3-----|--3-----3-----|--3-----------|-3-----3-----|-2-----5-5-2-2-|
A|-----------|-----2-----2--|-----2-----2--|--------------|----2-----2--|-1-------------|
D|-----------|--------------|--------------|--------------|-------------|---------------|


E|------------|---10------------|---10------------|---10--12--13--12--|---10------------|
B|--------3---|---10-----10-----|---10-----10-----|---10------10--11--|---10-----10-----|
G|--------0---|---10-----12-----|---10-----12-----|---10--12------12--|---10-----12-----|
D|--0-----2---|-----------------|-----------------|-------------------|-----------------|
A|--------1---|-------0------0--|-------0------0--|-------------------|-------0------0--|
D|-----5------|-----------------|-----------------|-------------------|-----------------|


E|------------------|----------|--1---------|--1-----------|--1--3--5--3--|--1----------|
B|--6---------------|-------6--|--1----1----|--1-----1-----|--1--3--5--3--|--1-----1----|
G|--3--7-7----------|-------3--|--2----3----|--2-----3-----|--2--3--5--3--|--2-----3----|
D|--5------8-8-5-5--|--3----0--|------------|--------------|--------------|-------------|
A|------------------|----1-----|-----3---3--|-----3-----3--|--------------|-----3-----3-|
D|--5---------------|-------5--|------------|--------------|--------------|-------------|


E|--17------12-----|--5-----------|--------------|-----------|-17----12---|--5----------|
B|-----------------|--------5-----|--3--3--3--3--|--3--3--3--|------------|--------5----|
G|------14------9--|-----2--------|--------0-----|-----------|----14----9-|-----2-------|
D|-----------------|-----------2--|--2--3-----3--|--2--2--2--|------------|-----------2-|
A|-----------------|--------------|--1--1--1--1--|--1--1--1--|------------|-------------|
D|-----------------|--------------|--------------|-----------|------------|-------------|


E|--------------|-----------|--10-----------|-------------|-------------|---------------|
B|--3--3--3--3--|--3--3--3--|---------10----|-------------|-------------|-----7--7---7--|
G|--------0-----|-----------|------7--------|--7----------|--7----------|-----7--7---7--|
D|--2--3-----3--|--2--2--2--|------------7--|-------7-----|-------7-----|-0------11--9--|
A|--1--1--1--1--|--1--1--1--|---------------|----5-----0--|----5-----0--|---------------|
D|--------------|-----------|---------------|-------------|-------------|---0-----------|


E|-------------------|-----------------------|--------------|--------------|---5°-------|
B|-7--7--7--7--7--7--|--7---7--7---7--7---7--|--7--7--7--7--|--7---7--7 7--|-7----7-7-7-|
G|-7--7--7--7--7--7--|--7---7--7---7--7---7--|--7--7--7--7--|--7---7--7 7--|-7----7-7-7-|
D|-7--9--7--9--7-----|----------------11--9--|--7--9--7-----|--------------|----------4-|
A|----------------10-|--9--10--9-------------|-----------10-|--9--10--9 7--|-5----5-7---|
D|-------------------|-----------------------|--------------|--------------|------------|


E|------0-0---7-7-7--|---7---5-5---9-9-9--|---9-7---12-10-9------|---9-------8--8--8----|
B|---7--------5-5-5--|---5---5-5---7-7-7--|---7-7---9--9--9--12--|---9-------7--7--7----|
G|---7--7-7---7-7-7--|---7---7-7---9-9-9--|---9-9---11-11-9--11--|---11------7--7--7----|
D|---5--5-5---6-6-6--|---6---7-7---8-8-8--|---8-9---9--9--11-12--|---11-----------------|
A|-------------------|--------------------|----------------------|----------------------|
D|-------------------|--------------------|----------------------|------11--------------|


E|-8--7-7------------|-------------------|-7----------------|-0---------6/7-15^14-12----|
B|-7--7-7---10-10-10-|-10--8--8----7-7-7-|-7--8-------------|---------0--------------15-|
G|-7--8-8---8--8--8--|-8---9--9----9-9-9-|-9----9-----------|-0-------------------------|
D|----------9--9--9--|-9---10-10---7-7-7-|-9------9--11--13-|-------5-------------------|
A|-------------------|-------------------|-----------12-----|-----2---------------------|
D|-------------------|-------------------|------------------|---2-----------------------|


E|------------------------------12\10-8^7---|--7^5--2^3-5------------------10^8-7-------|
B|-13^12-8/10-12°-------0 11^12-------------|------------------------9^10----------10---|
G|------------------------------------------|---------------------2---------------------|
D|--------------------5---------------------|-------------------4-----------------------|
A|------------------2-----------------------|-----------------3-------------------------|
D|----------------2-------------------------|---------------2---------------------------|


E|------------------------------------------|-----------------------6/7--15^14-12-------|
B|-10^8---7--8^7----------------------------|---------------------0----------------15---|
G|------9--------7-9---11^9-5-7---9^7-5-7---|--5^4-0-2-4--------------------------------|
D|------------------------------------------|-------------------5-----------------------|
A|------------------------------------------|-----------------2-------------------------|
D|------------------------------------------|---------------2---------------------------|


E|--------------------------------12\10-8^7-|--7^5--2^3-5--------0--------10^8--7-------|
B|-13^12-8/10-12°------0----11^12-----------|-----------------------9^10----------10----|
G|-----------------------7------------------|------------------5------------------------|
D|-------------------0----------------------|----------------2--------------------------|
A|------------------------------------------|--------------0----------------------------|
D|-----------------5------------------------|-------------------------------------------|


E|------------------------------------------|-----7--7--7--|-----7-----7----7--7--7-----|
B|-10^8---7--8^7----------------------------|-----7--7--7--|-----7-----7----7--7--7-----|
G|------9--------7-9---11^9-5/7---9^7-------|-----9--7-----|----------------9--7--------|
D|------------------------------------9^10--|--9-------10--|-----9--10-9---------10-----|
A|------------------------------------------|--------------|----------------------------|
D|------------------------------------------|--------------|----------------------------|


E|--7--7--7--7--|--7---19°------------|--------------------|----------------------------|
B|--7--7--7--7--|--7---------7--7--7--|--7---7-7--7--7--7--|------7---7-7---7--7--7-----|
G|-----9--7-----|------------7--7--7--|--7---7-7--7--7--7--|------7---7-7---7--7--7-----|
D|--9-------10--|--9-----------10--9--|--7---9-7--9--7-----|------------------10--9-----|
A|--------------|---------------------|----------------10--|------9--10-9---------------|
D|--------------|---------------------|--------------------|----------------------------|


E|---------------------------|-------------------|--------------------|-----------------|
B|--7--7--7--7--7------------|--0-------3--3--3--|--3--3-3------------|-----------------|
G|--7--7--7--7--7---7--7--7--|--7-------4--4--4--|--4--4-4---7--7--7--|--7--------------|
D|--7--9--7--------10-10-10--|------5°--0--2--4--|--4--2-2---9--9--9--|--9---7-7-7-7-7--|
A|----------10--9--10--9--7--|--5----------------|--------------------|-----------------|
D|---------------------------|-------------------|--------------------|-----------------|


E|---------------------------------|---------------------------------14^12---10---------|
B|----7----------------------------|--------------------------9/10----------------14----|
G|----7-------------------2--------|----------------------------------------------------|
D|---------7----4---------5--------|----4------------4----------------------------------|
A|-------------------0----2----4---|----5--------0--------------------------------------|
D|---------------------------------|---------0-----------7°-----------------------------|


E|--------------------------------10^9--7-----|------------------------------10^9--7----|
B|--12^10-7/8-10------------9^10-----------10-|-10^8--5/7-8--------------7^8---------10-|
G|--------------------------------------------|--------------------12°------------------|
D|-----------------------7--------------------|------------------------7----------------|
A|-----------------12°-9----------------------|----------------12°----------------------|
D|---------------0----------------------------|--------------0--------------------------|


E|--------------------------------------------|-----------------------------14^12-10----|
B|---10^8-5/7---8^7---------------------------|------------------------9/10----------14-|
G|------------------7-9---11^9-6-7---9^7-4-6--|-4^2-------------------------------------|
D|--------------------------------------------|-----4-5--7--------4---------------------|
A|--------------------------------------------|---------------12°-----------------------|
D|--------------------------------------------|-------------0-------7°------------------|


E|--------------------------------10^9--7-----|----------------------------10^9-7-------|
B|--12^10-7^8--10------------9^10---------10--|-10^8-5/7--8--------0---7^8--------10----|
G|-----------------------2--------------------|-----------------------------------------|
D|---------------------4----------------------|------------------5----------------------|
A|-------------------4------------------------|----------------2------------------------|
D|-----------------4--------------------------|--------------2--------------------------|


E|------------------------2^0-----------------|--2------------0----2--------------------|
B|---10-8-5^7---8^7-3^5-------2^3----2^0------|--2------------2----2-------------5------|
G|---------------------------------------0^2--|------2^4--6^4-2^0------2^4--6^4--6^0----|
D|--------------------------------------------|--4^5---------------4^5-----------7------|
A|--------------------------------------------|-----------------------------------------|
D|--------------------------------------------|-----------------------------------------|


E|--2--2--2--2----2--2--2--2--|-----2-----2-------0--------|-----0-----0----------------|
B|--2--2--2--2----2--2--2--2--|-----2-----2----------------|--------------------3-------|
G|-----4--2----------4--2-----|-------------------6--------|-----5-----5--------5-------|
D|--4--------5----4--------5--|-----4---5-4----7--5--4-----|-----2---4-2-----5--4--2----|
A|----------------------------|----------------------------|----------------------------|
D|----------------------------|----------------------------|----------------------------|


E|----------------------------|----------------------------||
B|-----3-----3----------------|----------------------------||Malinconico 
G|-----4-----4----------------|----------------------------||ma
D|-----0---2-0----5--4--2-----|----------------------------||piuttosto
A|----------------------------|----5--3--2--0--------------||mosso
D|----------------------------|----------------5^4--2--0---||


E|-----6-6-6-----6-6-6-----6-6-6-----6-6-6----|----6-6-6-----6-6-6-----6-6-6-----6-6-6--|
B|--------------------------------------------|--8---------6----------------------------|
G|-------------7---------6---------7----------|----------------------8---------7--------|
D|---0----------------------------------------|-----------------------------------------|
A|--------------------------------------------|-----------------------------------------|
D|--------------------------------------------|-----------------------------------------|


E|--------------------------------------------|-----------------------------------------|
B|-----10tr------10tr-----10tr------10tr------|-----10tr-----10tr-----10tr------10tr----|
G|--------------------------------------------|--10--------8--------7-------------------|
D|------------10--------9--------10-----------|------------------------------10---------|
A|--------------------------------------------|-----------------------------------------|
D|---0----------------------------------------|-----------------------------------------|


E|--------------------------------------------|-----------------------------------------|
B|-----8tr-----8tr------8tr-----8tr-----------|-----8tr------8tr------8tr------8tr------|
G|--------------------------------------------|---8--------7--------5-------------------|
D|-----------8--------7-------8---------------|------------------------------8----------|
A|--------------------------------------------|-----------------------------------------|
D|---0----------------------------------------|-----------------------------------------|


E|--------------------------------------------|-----------------------------------------|
B|-----7tr------7tr------7tr------7tr---------|-----7tr------7tr------7tr------7tr------|
G|--------------------------------------------|---7--------5----------------------------|
D|------------7--------6--------7-------------|---------------------8--------7----------|
A|--------------------------------------------|-----------------------------------------|
D|---0----------------------------------------|-----------------------------------------|


E|--------------------------------------------|-----------------------------------------|
B|-----8tr-----8tr------8tr-----8tr-----------|-----8tr------8tr------8tr------8tr------|
G|--------------------------------------------|---8--------7--------5-------------------|
D|-----------8--------7-------8---------------|------------------------------8----------|
A|--------------------------------------------|-----------------------------------------|
D|---0----------------------------------------|-----------------------------------------|


E|--------------------------------------------|-----------------------------------------|
B|-----6tr------6tr------6tr------6tr---------|-----6tr------6tr------6tr------6tr------|
G|--------------------------------------------|---7--------5----------------------------|
D|------------7--------6--------7-------------|---------------------8--------7----------|
A|--------------------------------------------|-----------------------------------------|
D|---0----------------------------------------|-----------------------------------------|


E|--------------------------------------------|-----------------------------------------|
B|-----4tr------4tr------4tr-----4tr----------|-----4tr------4tr------4tr------4tr------|
G|--------------------------------------------|---5--------3--------2--------0----------|
D|------------5--------4-------5--------------|-----------------------------------------|
A|--------------------------------------------|-----------------------------------------|
D|---0----------------------------------------|-----------------------------------------|


E|--------------------------------------------|------------------------5^8--9^10^11^10--|
B|-----3tr------3tr------3tr------3tr---------|-----------2^3^4^3----7------------------|
G|---0-----------------2----------------------|------2^5--------------------------------|
D|------------4-----------------4-------------|----4---------------0--------------------|
A|--------------------------------------------|-----------------------------------------|
D|--------------------------------------------|--0--------------------------------------|


E|-----3tr------3tr------3tr------3tr---------|-----3tr------3tr------3tr------3tr------|
B|--------------------------------------------|---4-------------------------------------|
G|------------3--------2--------3-------------|------------6--------4--------3----------|
D|--------------------------------------------|-----------------------------------------|
A|--------------------------------------------|-----------------------------------------|
D|---1----------------------------------------|-----------------------------------------|


E|-----1tr------1tr------1tr------1tr---------|-----1tr------1tr------1tr------1tr------|
B|--------------------------------------------|---2-------------------------------------|
G|------------1-----------------1-------------|------------4--------3--------1----------|
D|---------------------5----------------------|-----------------------------------------|
A|--------------------------------------------|-----------------------------------------|
D|---1----------------------------------------|-----------------------------------------|


E|--------------------------------------------|-----------------------------------------|
B|-----4tr------4tr------4tr------4tr---------|-----4tr------4tr------4tr------4tr------|
G|--------------------------------------------|---4--------3--------1-------------------|
D|------------4--------3--------4-------------|------------------------------4----------|
A|--------------------------------------------|-----------------------------------------|
D|---1----------------------------------------|-----------------------------------------|


E|--------------------------------------------|-----------------------------------------|
B|-----4tr------4tr-----4tr------4tr----------|-----4tr------4tr------4tr------4tr------|
G|-----------------------------1--------------|---3--------3--------5--------5----------|
D|---3--------1-------4-----------------------|-----------------------------------------|
A|--------------------------------------------|-----------------------------------------|
D|--------------------------------------------|-----------------------------------------|


E|--------------------------------------------|------------8^6-5------------------------|
B|--------3-------------------3----5/6-8^6----|--------6---------8---6------------------|
G|------3-------------------3-----------------|------8-----------------8-7-5---3^2-0----|
D|----3------2^3-5^3------3-------------------|----7---------------------------------3--|
A|--1-------------------1---------------------|--8--------------------------------------|
D|--------------------------------------------|-----------------------------------------|


E|--------------------------------0^1--3^1----|------------8^6-5-3---2------------------|
B|--------3-------------------3---------------|--------7---------------4-3--------------|
G|------3-------------------3-----------------|------5---------------------5---3^2-0----|
D|----3------2^3-5^3------3-------------------|----0---------------------------------4--|
A|--1-------------------1---------------------|--0--------------------------------------|
D|--------------------------------------------|-----------------------------------------|


E|--------------------------------------------|--10---------------------|----------10---|
B|--------------------------------2^3-4^3-----|------11-11---8-8---4-4--|--3-------11---|
G|--------3-------------------3---------------|--7----------------------|------0---0----|
D|------5-------------------5-----------------|------8-------5-----1----|--0------------|
A|----5-------4^5-6^5-----5-------------------|-------------------------|---------------|
D|--5-------------------5---------------------|-------------------------|------5--------|


E|--------------------------------------------|--10---------------------|----------10---|
B|--------------------------------2^3-4^3-----|------11-11---8-8---4-4--|--3-------11---|
G|--------3-------------------3---------------|--7----------------------|------0---0----|
D|------5-------------------5-----------------|------8-------5-----1----|--0------------|
A|----5-------4^5-6^5-----5-------------------|-------------------------|---------------|
D|--3-------------------3---------------------|-------------------------|------5--------|


E|--------------------------------------------|-10-10--6-6------------------------------|
B|----------------------2^3-5^3---7^8-10^8----|-------------8-8--5-5--------------------|
G|--------0---2^3-5^3-------------------------|-----------------------7-7---------------|
D|------0-------------------------------------|----------------------------8-8--5-5-----|
A|----1---------------------------------------|-------------------------------------7-7-|
D|--2-----------------------------------------|-----------------------------------------|


E|-------------------------------------6-6----|--10^6---0------------10^6---0-----------|
B|---------------------------5-5--8-8---------|-------8----3--------------8----3--------|
G|----------------------7-7-------------------|--------------3^0-----------------3^0----|
D|------------5-5--8-8------------------------|------------------2-------------------2--|
A|--5-5--7-7----------------------------------|-----------------------------------------|
D|--------------------------------------------|-----------------------------------------|


E|------17--13-13-10-10-------|----------------------------|-----------------------2^0--|
B|---10-----------------12-12-|-10-10-------------------7--|-------0-------3^2---0------|
G|----------------------------|-------11-11-------------7--|---------2---0-----0--------|
D|----------------------------|-------------12-12-9-9-7----|-----2-----2----------------|
A|-0--------------------------|----------------------------|---0------------------------|
D|----------------------------|----------------------------|----------------------------|


E|------5^3---3-7^5---7-10^9--|------17--13-13-10-10-------|----------------------------|
B|----3-----5-------8---------|---10-----------------12-12-|-10-10-------------------7--|
G|--4-------------------------|----------------------------|-------11-11-------------7--|
D|----------------------------|----------------------------|-------------12-12-9-9-7----|
A|----------------------------|-0--------------------------|----------------------------|
D|----------------------------|----------------------------|----------------------------|


E|----------------------------|------4^2-----7^5---5--9^7--|------17--13-13-10-10-------|
B|----------------------5^4---|----2-------5-----7---------|---10-----------------12-12-|
G|------4-------6^4---2-------|--2-------6-----------------|----------------------------|
D|--------7---4-----4---------|----------------------------|----------------------------|
A|----6-----6-----------------|----------------------------|----------------------------|
D|--4-------------------------|----------------------------|-3--------------------------|


E|-------------------------5--|------17--14-14-12-12--9-9--|--------------------------0-|
B|-10-10-------------------6--|---10-----------------------|-10-10-------------------10-|
G|-------10-10----------------|----------------------------|------11-11-9-9----------11-|
D|-------------12-12-9-9-7----|----------------------------|----------------11-11-------|
A|----------------------------|----------------------------|----------------------12°---|
D|----------------------------|-2--------------------------|----------------------------|


E|----------17----13-13-10-10-----------------|-----------------------------------------|
B|------10------------------------12-12-------|----10-10-----------------------0--0-----|
G|--------------------------------------------|-----------10-10-------------------------|
D|--------------------------------------------|--------------------12---12--------------|
A|--------------------------------------------|-----------------------------------------|
D|---0----------------------------------------|-----------------------------------------|


E|--------------------------------------------|-----------------------2--------4--------|
B|--10^6---0-------------10^6---0-------------|------3------4---------2--------5--------|
G|-------7-----2--------------7-----2---------|------3------5---------3--------4--------|
D|---------------3^0------------------3^0-----|------3------6------------------2--------|
A|-------------------2--------------------2---|------1-------------------------2--------|
D|--------------------------------------------|-------------6---------4--------0--------|


E|--------------------------------------------|------------------------10\8---6^5-------|
B|----10--------------------------------------|------------6-----9^10-------------------|
G|-----------10--10----7--7-------------------|------------7----------------------------|
D|-----7-----------------------9--9-----------|----7--0----7----------------------------|
A|-----0--------------------------------------|-----------------------------------------|
D|-----0--------------------------------------|-----------------------------------------|


E|----5---------------------------------------|------------0----------8^6---5-----------|
B|-------8^5---6^8-----5--5-------------------|------------1-----7^8------------8-------|
G|----------------------------5--5------------|----0-------0----------------------------|
D|-----------------------------------7--7-----|-----------------------------------------|
A|--------------------------------------------|-------3---------------------------------|
D|----0---------------------------------------|-----------------------------------------|


E|--------------------------------------------|--------------0---3-----1---0------------|
B|----8^6-----5---6---------------------------|------------------3---------------3------|
G|---------7-----------7--7-------------------|------------------3----------------------|
D|----------------------------8--8---5--5-----|-----3-----------------------------------|
A|--------------------------------------------|---------1-------------------------------|
D|----0---------------------------------------|-----------------------------------------|


E|---------0----------------------------------|-----------------------------------------|
B|----3^2-----2-------------------------------|-----------------------------------------|
G|----------------2---------------------------|---------------------0---2---3---5---7---|
D|----------------------5--5----2--2----------|-----------------------------------------|
A|----0--------------------------------4--4---|-----0---12°-----------------------------|
D|----0---------------------------------------|-----------------2-----------------------|


E|--------------------------------------------|------------------8----------------------|
B|-------------8------------------------------|--------------10--8-----11--10-----8-----|
G|----0-------------8--8----5--5--------------|------------------8----------------------|
D|----1---(5)-----------------------8--8------|------5----------------------------------|
A|----1---------------------------------------|---------6-------------------------------|
D|----1---------------------------------------|-----------------------------------------|


E|--------------------------------------------|-----------------------------------------|
B|----8^6-------------------------------------|---------------3--------------8--10------|
G|----7-----7--9--10-----7--7----3--3---------|---------------3----7^9--10--------------|
D|----0---------------------------------5--5--|-------3-------3-------------------------|
A|--------------------------------------------|-----------1-----------------------------|
D|----8---------------------------------------|-----------------------------------------|


E|-------------3--5---|-----------------------|---------------3--5--|-------------------|
B|--3--3^5--6---------|----3------------------|--3---3--5--6--------|---3---1-------1---|
G|--2-----------------|---------5-------5-----|--2------------0--2--|-------0---2---0---|
D|--3-----------------|-------------7---------|--0---0--2--3--------|---0---2---3-------|
A|--0-----------------|----5--------7---------|--0------------------|-------0---3---0---|
D|--------------------|----3--------5---------|--0------------------|-----------3---2---|


E|--------------3--5--|-----------------------|-----------------------------------------|
B|--3--3--5--6--------|----3----1--------1----|--------3----3----5----6----8---10-------|
G|--2-----------0--2--|---------0----2---0----|--------2--------------------------------|
D|--0--0--2--3--------|----0----2----3--------|--------0----0----2----3----5---7--------|
A|--0-----------------|---------0----3---0----|--------0--------------------------------|
D|--0-----------------|--------------3---2----|--------0--------------------------------|


E|-----------6---6---6--------|-----6----3----3----3-------|-----3----------------------|
B|---11------8---6---4--------|-----3----4----3----1-------|----------3----3----3-------|
G|-----------8---7---5--------|-----3----5----3----2-------|-----3----3----2----0-------|
D|---8------------------------|----------------------------|-----5----5----3----2-------|
A|----------------------------|----------------------------|----------------------------|
D|----------------------------|----------------------------|----------------------------|


E|----------------------------|-----------6---6---6--------|-----6----3----3----3-------|
B|-----3----------------------|-----------8---6---4--------|-----3----4----3----1-------|
G|-----2---------2------------|-----------8---7---5--------|-----3----5----3----2-------|
D|-----0---------5------------|----------------------------|----------------------------|
A|----------0---------0-------|----------------------------|----------------------------|
D|----------------------------|-----0----------------------|----------------------------|


E|------3---------------------|----------------------------|-----1----------------------|
B|-----------3----3----3------|-----3----------------------|-----1---------1------------|
G|------3----3----2----0------|-----2---------2------------|-----2---------3------------|
D|------5----5----3----2------|-----0---------5------------|----------------------------|
A|----------------------------|----------0---------0-------|----------3---------3-------|
D|----------------------------|----------------------------|----------------------------|


E|--5-------0-------|---8-----------------|-------12 12 12---12 12 12---10 10 10--------|
B|--5-------0-------|---8--------8--------|---------------------------------------------|
G|--5-------7-------|---9-------10--------|---9-----------------------------------------|
D|------------------|---------------------|---------------------------------------------|
A|-----7---------7--|-------10--------10--|---------------------------------------------|
D|------------------|---------------------|---------------------------------------------|


E|--8-8-8----8-8-8----7-7-7---|--5-5-5----4-4-4----5-5-5---|--7-7-7----0-0-0------0-----|
B|----------------------------|----------------------------|----------------------------|
G|----------------------------|----------------------------|--------------------9---9---|
D|----------------------------|----------------------------|----------------------------|
A|----------------------------|----------------------------|----------------------------|
D|----------------------------|----------------------------|----------------------------|


E|-------0-0-----0-0-----0-0--|----0-0--------8----12°-----|----0-0-------7----12°------|
B|----------------------------|------------10--------------|------------9---------------|
G|-12^10-------9-------7------|--9-------9-----------------|--9-------9-----------------|
D|----------------------------|----------------------------|----------------------------|
A|----------------------------|----------------------------|----------------------------|
D|----------------------------|----------------------------|----------------------------|


E|----------------------------|----------------------------|--------------10-----------||
B|----------------------------|--------------3-------------|--------------10-----------||
G|------------2---------------|--------------2-------------|--------------10-----------||
D|------------5---------------|--------------3-------------|---------------0-----------||
A|------------0---------------|--------------0-------------|---------------0-----------||
D|----------------------------|----------------------------|---------------0-----------||

 

Tabbed by Al M. Parente  jack.x@tiscalinet.it


Добавлено: 04.06.2012
Вам также может быть интересно:
Другие материалы по этой песне:

Страница создана 04.06.2012
http://primanota.ru/mario-castelnuovo-tedesco/capriccio-diabolico-homage-to-paganini-chords.htm
Привет, Гость.
Предлагаем пройти революционный курс по гитаре.
Подарок от PrimaNota.Ru, забирай!