PrimaNota.ru - самый крупный в мире бесплатный архив песенных текстов, аккордов, табулатур и нот


Marine Girls - A Place In The Sun - бас-таба, видео

Регистрация Запомнить меня
Войти через:  Facebook Google Twitter Vk Yandex Mail.ru

Marine Girls - A Place In The Sun - бас-таба, видео

Печатать
Просмотров: 162
Авторы музыки: Tracey Thorn
Авторы текста: Tracey Thorn
Artist: Marine Girls
Song: A Place in the Sun
Album: Lazy Ways (1983)
Spotify: https://open.spotify.com/track/1rgV56D64LRCNNwCLUcgfj
Tuning: GDAE


Figure 1
G|----------------------------------------------7-----|
D|-------9-----10--9-7-9----9-----9-----10--9-7-------| x7
A|--7-7----10----------------7-7----10----------------|
E|----------------------------------------------------|

Figure 2
G|----------------------------------------------7----7|
D|-------9-----10--9-7-9----9-----9-----10--9-7-------| x1
A|--7-7----10----------------7-7----10----------------|
E|----------------------------------------------------|

Figure 3
G|----------------------------------------------------|
D|--9-9---9-9-12--12-12-11--11-12-12------------------| x3
A|----------------------------------------------------|
E|----------------------------------------------------|

Figure 1 x7
Figure 2 x1
Figure 3 x3
Figure 1 x2
Figure 2 x3
 
Figure 4
G|----------------------------------------------------|
D|-------9-----10--9-7-9----9-------------------------| x1
A|--7-7----10-----------------7-----------------------|
E|----------------------------------------------------|
Добавлено: 01.09.2015
Другие материалы по этой песне:
  • Аккорды и текст

Страница создана 01.09.2015
http://primanota.ru/marine-girls/place-in-sun-chords.htm
Привет, Гость.
Предлагаем пройти революционный курс по гитаре.
Подарок от PrimaNota.Ru, забирай!