PrimaNota.ru - самый крупный в мире бесплатный архив песенных текстов, аккордов, табулатур и нот


Marine Girls - Love To Know - бас-таба, видео

Регистрация Запомнить меня
Войти через:  Facebook Google Twitter Vk Yandex Mail.ru

Marine Girls - Love To Know - бас-таба, видео

Печатать
Просмотров: 159
Авторы музыки: Tracey Thorn
Авторы текста: Tracey Thorn
Artist: Marine Girls
Song: Love to Know
Album: Lazy Ways (1983)
Spotify: http://open.spotify.com/track/2eJW10wl70KQ7zLazlSEMW
Tuning: GDAE

Figure 1
G|-------------------------------------|
D|--9--9-11-9----------------11-12-11--| x6
A|------------11-----------------------|
E|---------------12-10---(10)----------|

Figure 2
G|-------------------------------------|
D|-------9-11---9----------------------| x7
A|-------------------------------------|
E|--12---------------------------------|

Figure 3
G|-------------------------------------|
D|-------9-11--------------------------| x1
A|-------------------------------------|
E|--12---------------------------------|

Figure 1 x6
Figure 2 x7
Figrue 3 x1
Figure 1 x10
Figure 2 x7
Figure 3 x1
Добавлено: 01.09.2015
Другие материалы по этой песне:
  • Аккорды и текст

Страница создана 01.09.2015
http://primanota.ru/marine-girls/love-to-know-chords.htm
Привет, Гость.
Предлагаем пройти революционный курс по гитаре.
Подарок от PrimaNota.Ru, забирай!