PrimaNota.ru - самый крупный в мире бесплатный архив песенных текстов, аккордов, табулатур и нот


Marine Girls - Falling Again - бас-таба, видео

Регистрация Запомнить меня
Войти через:  Facebook Google Twitter Vk Yandex Mail.ru

Marine Girls - Falling Again - бас-таба, видео

Печатать
Просмотров: 140
Уроки эстрадного вокала в Санкт-Петербурге
Авторы музыки: Jane Fox
Авторы текста: Jane Fox
Artist: Marine Girls
Song: Falling Again
Album: Lazy Ways (1983)
Spotify: https://open.spotify.com/track/1yD71ecqb4nqV0EF4flTSj
Tuning: GDAE

Figure 1
G|----------------11-11-13--11------------------------------|
D|--14-14-11--14----------------14-14-11----------------11--| x3
A|----------------------------------------14--12-12-14------|
E|----------------------------------------------------------|

Figure 2
G|--------------11------------------------------------------|
D|--14--11--14----------------------------------------------| x1
A|----------------------------------------------------------|
E|----------------------------------------------------------|

Figure 3
G|--------------11-11-13--11--------------------------------|
D|--14--11--14----------------14-14-11----------------11----| x1 
A|--------------------------------------14--12-12-14--------|
E|----------------------------------------------------------|

Figure 4
G|----------------11-11-13--11------------------------------|
D|--14-14-11--14----------------14-14-11--------------11----| x1
A|----------------------------------------14--12--14--------|
E|----------------------------------------------------------|

Figure 3 x1
Figure 1 x1
Figure 2 x1
Figure 3 x1
Figure 1 x3
Figure 2 x1
Figure 3 x1
Figure 4 x1
Figure 1 x3
Figure 2 x1
Figure 3 x1

Figure 5
G|----------------11-11-13--11------------------------------|
D|--14-14-11--14----------------14--------------------------| x1
A|----------------------------------------------------------|
E|----------------------------------------------------------|
Добавлено: 01.09.2015
Вам также может быть интересно:
Другие материалы по этой песне:
  • Аккорды и текст

Страница создана 01.09.2015
http://primanota.ru/marine-girls/falling-again-chords.htm
Привет, Гость.
Предлагаем пройти революционный курс по гитаре.
Подарок от PrimaNota.Ru, забирай!