PrimaNota.ru - самый крупный в мире бесплатный архив песенных текстов, аккордов, табулатур и нот


Marine Girls - A Different Light - бас-таба, видео

Регистрация Запомнить меня
Войти через:  Facebook Google Twitter Vk Yandex Mail.ru

Marine Girls - A Different Light - бас-таба, видео

Печатать
Просмотров: 74
Авторы музыки: Tracey Thorn
Авторы текста: Tracey Thorn
Artist: Marine Girls
Song: A Different Light
Album: Lazy Ways (1983)
Spotify: https://open.spotify.com/track/0L3m3voi3AfblhICg5H929
Tuning: GDAE


Figure 1
G|--------------------------------------------|
D|--10-10--10-12--10-10--12--10-10--9--7--9---| x5
A|--------------------------------------------|
E|--------------------------------------------|

Figure 2
G|--------------------------------------------|
D|--10-10--10-12--10-10--12--10-10--12-10-10--| x1
A|--------------------------------------------|
E|--------------------------------------------|

Figure 3
G|--------------------------------------------|
D|--10----9-10-9---10----9-10-9-7-------------| x1
A|--------------------------------------------|
E|--------------------------------------------|

Figure 4
G|--------------------------------------------|
D|--10----9-10-9---10----10-10--10-12---------| x1
A|--------------------------------------------|
E|--------------------------------------------|


Figure 1 x5
Figure 2 x1
Figure 3 x1
Figure 4 x1
Figure 1 x5
Figure 2 x1
Figure 3 x3 
Figure 4 x1
Добавлено: 01.09.2015
Другие материалы по этой песне:
  • Аккорды и текст

Страница создана 01.09.2015
http://primanota.ru/marine-girls/different-light-chords.htm
Привет, Гость.
Предлагаем пройти революционный курс по гитаре.
Подарок от PrimaNota.Ru, забирай!