PrimaNota.ru - самый крупный в мире бесплатный архив песенных текстов, аккордов, табулатур и нот


Marilyn Manson - Thrift - текст песни, таба, видео

Регистрация Запомнить меня
Войти через:  Facebook Google Twitter Vk Yandex Mail.ru

Marilyn Manson - Thrift - текст песни, таба, видео

Печатать
Просмотров: 372
Song: Thrift
Artist: Marilyn Manson and the Spooky Kids
Album: Refrigerator
As tabbed by Joe Muggah

Verse 
e----------|-----------------------------------------------
B--0-(x14)-|--0-0--12--0-0--10--0-0--12--0-0--10--0-0------
G----------|-----------------------------------------------
D----------|-----------------------------------------------
A----------|-----------------------------------------------
E----------|-----------------------------------------------

(continued, end on:)
    1st       2nd       3rd       4th
e--10h12--|--12p10--|--10h12--|--10p7----------------------
B---------|---------|---------|----------------------------
G---------|---------|---------|----------------------------
D---------|---------|---------|----------------------------
A---------|---------|---------|----------------------------
E---------|---------|---------|----------------------------

Chorus
e----------------------------------------------------------
B----------------------------------------------------------
G-----------------------------------------7^---------------
D--2-2-2-2-2-2--7/9--7/9--9-9-9-9-9-9-9---7^---------------
A--2-2-2-2-2-2--7/9--7/9--9-9-9-9-9-9-9---5^---------------
E--0-0-0-0-0-0--5/7--5/7--7-7-7-7-7-7-7--------------------

(continued)
e----------------------------------------------------------
B----------------------------------------------------------
G-----------------------------------------7^---------------
D--2-2-2-2-2-2--7/9--7/9--2-2-2-2-2-2-2---7^---------------
A--2-2-2-2-2-2--7/9--7/9--2-2-2-2-2-2-2---5^---------------
E--0-0-0-0-0-0--5/7--5/7--0-0-0-0-0-0-0--------------------

Bridge                   end on
e---------------------------|------------------------------
B---------------------------|------------------------------
G---------------------------|------------------------------
D--4-4-4-4-4-4-4-4-4-4-4-4--|--7-7-7-7---------------------
A--4-4-4-4-4-4-4-4-4-4-4-4--|--7-7-7-7---------------------
E--2-2-2-2-2-2-2-2-2-2-2-2--|--5-5-5-5---------------------

Riff 1
e----------------------------------------------------------
B----------------------------------------------------------
G-----------7/9\7------------7-----------------------------
D--9-9-9-7--7/9\7---9-9-9-7--7-----------------------------
A--9-9-9-7--5/7\5---9-9-9-7--5-----------------------------
E--7-7-7-5----------7-7-7-5--------------------------------

Solo 1
e----------------------------------------------------------
B-----------12-12-12-12-12-12--10h12-12-12-15-12--10h12-12-
G--10h12-10------------------------------------------------
D----------------------------------------------------------
A----------------------------------------------------------
E----------------------------------------------------------

(continued)
e----------------------------------------------------------
B--12-15-12--12-14-14-15--12^--15-14h15-12--15-14h15-12----
G----------------------------------------------------------
D----------------------------------------------------------
A----------------------------------------------------------
E----------------------------------------------------------

(contiuned)
e---------------------------------------------17-----------
B--15-14h15-15-15-15^--15--17-18-19--17h19-17-----17h19-17-
G----------------------------------------------------------
D----------------------------------------------------------
A----------------------------------------------------------
E----------------------------------------------------------

(contiuned)
e-----------17------------------19p17-----19p17-----19p17--
B--17-17-17-----17h19-17-17-17--------19--------19---------
G----------------------------------------------------------
D----------------------------------------------------------
A----------------------------------------------------------
E----------------------------------------------------------

(continued)
e----------------------------17----------------------------
B--19--18-18-18-19--18h19-18-----18-19-18-19\----14--15----
G----------------------------------------------------------
D----------------------------------------------------------
A----------------------------------------------------------
E----------------------------------------------------------

(continued)
e----------------------------------------------------------
B--14h15-12--10h12-----------------------------------------
G----------------------------------------------------------
D-------------------12\------------------------------------
A----------------------------------------------------------
E----------------------------------------------------------

Riff 2
e----------------------------------------------------------
B----------------------------------------------------------
G--9^----9^----9^----9^----9^----9^------------------------
D--x-----x-----x-----x-----x-----x-------------------------
A--7^----7^----7^----7^----7^----7^------------------------
E----------------------------------------------------------

Solo 2
e--------------------------------14\-----------------------
B------------------------10/12---15\---12--12--12--12^-----
G----------------------------------------------------------
D--------------------12------------------------------------
A--12^--9-10-9---------------------------------------------
E---------------10-----------------------------------------

(continued)
e----------------------------------------------------------
B------------10-12--10/12-10-------------------------------
G--11-12-11---x--x---x-----x--12-12-11--11-12-11/12--11^---
D---x--x--x---7--9---7/-9--7---x--x--x---x--x--x------x----
A---9-10--9-------------------10-10--9---9-10--9/10---9^---
E----------------------------------------------------------

(continued)
e----------------------------------------------------------
B----------------------------------12^-\-------------------
G--11-12--11/12----------11^--11^---x----------11-11-12-11-
D---x--x---x-----12-12^---x----x----9^-\---9^---x--x--x--x-
A---9-10---9/10---x--x----9^---9^----------x----9--9-10--9-
E----------------10-10^--------------------7^--------------

(continued)
e----------------------------------------------------------
B--10-10--12-12--15-15--17--18-18-18-18--------------------
G---x--x---x--x---x--x---x---x--x--x--x--------------------
D---7--7---9--9--12-12--14--15-15-15-15--------------------
A----------------------------------------------------------
E----------------------------------------------------------

Outro
e----------------------------------------------------------
B--0-9--0-8--0-6--0-5--0-4---------------------------------
G----------------------------------------------------------
D----------------------------------------------------------
A----------------------------------------------------------
E----------------------------------------------------------

Verse
Chorus
Verse
Bridge
Riff 1
Solo 1
Verse
Riff 2
Verse 
Bridge
Solo 2
Verse
Outro
===========

Thrift 
daisyZimXX@aol.com

e------------------------------------------------------10h12--
B--0-0-12-0-0-10-0-0-12-0-0-10--10h12------------
G----------------------------------------------------------------

e------------------------------------------------------12h10--
B--0-0-12-0-0-10-0-0-12-0-0-10--12h10------------
G----------------------------------------------------------------

I play Plam Muting ALL notes...But U can Palm mute just the Open "B"'s if u
think that sounds better....

h = hammer on (tap the fret to sound note,with out picking)


=================================================================

"Thrift"
By Satan (the-reflecting-god@usa.net)

Normal Tuning (EADGBe)Notes:
This song was tabbed from a bootleg video named "Scare
Tactics."  It is the last Manson & the Spooky Kids Show.
I reccomend getting it.  Great track list, good sound, and
everything is played really well.  In this version of
the song, the is a lot of delay (4 or more taps, or 2-4 taps
with a lot of delay feedback.)  Also, midrange distortion 
and, of course, a wah.

Intro:
e|-x-|
B|-x-|
G|-x-|
D|-x-|
A|-x-|
E|-x-|

Verse (lots of delay):
e|------------------------10^12^10--------|
B|---12---12^10---12^10--------------12---|
G|----------------------------------------|
D|----------------------------------------|
A|----------------------------------------|
E|----------------------------------------|

During the verse, there is something (probably Pogo, 
since he plays only a little in this song) that goes:
e|-----------|
B|-----------|
G|-----------|
D|-9-9-9-9-9-|
A|-----------|
E|-----------|

Pre-chorus (all root 6):  F#5 G5 A5 B5

Chorus (all root 5):  B5 A5

Solos:  I'm still working, but they seem to be based on
some fancy wah-work and a pentatonic scale.
Outro:  With lots of delay (same as verse,) just barre
the e and B strings and make a run down from the 10th
or 12th fret.
Добавлено: 04.04.2012
Другие материалы по этой песне:
  • Аккорды и текст

Страница создана 29.02.2012
http://primanota.ru/marilyn-manson/thrift-chords.htm
Привет, Гость.
Предлагаем пройти революционный курс по гитаре.
Подарок от PrimaNota.Ru, забирай!