PrimaNota.ru - самый крупный в мире бесплатный архив песенных текстов, аккордов, табулатур и нот


Marilyn Manson - The Way I Am - таба, видео

Регистрация Запомнить меня
Войти через:  Facebook Google Twitter Vk Yandex Mail.ru

Marilyn Manson - The Way I Am - таба, видео

Печатать
Просмотров: 244
Song: The Way I Am
Artist: Marilyn Manson and Eminem
Album: -
As tabbed by Joe Muggah

Played on a 7-string Guitar
Dropped A tuning (B,E,A,D,G,b,e becomes A,E,A,D,G,b,e)

Verse A (Guitar 1)      end on:  1st   2nd   
e-----------------------------|------|---------------------
B-----------------------------|------|---------------------
G-----------------------------|------|---------------------
D-----------------------------|--3-3-|----------3----------
A--0-0h1p0---0h1p0---0-0h1p0--|--1-1-|--0-0h1p0-1----------
E--0-0h1p0---0h1p0---0-0h1p0--|--1-1-|--0-0h1p0-1----------
A--0-0h1p0---0h1p0---0-0h1p0--|--1-1-|--0-0h1p0-1----------
("I sit back...")

Verse B (Guitar 2)
e-----10-12----10-12----12-13----12-13----8-10----8-10-----
B--10-------10-------10-------10-------10------10----------
G----------------------------------------------------------
D----------------------------------------------------------
A----------------------------------------------------------
E----------------------------------------------------------
A----------------------------------------------------------

(continued)
e-----7-8----7-8----8-10----8-10---------------------------
B--10-----10-----10------10--------------------------------
G----------------------------------------------------------
D----------------------------------------------------------
A----------------------------------------------------------
E----------------------------------------------------------
A----------------------------------------------------------

Chorus
e----------------------------------------------------------
B----------------------------------------------------------
G----------------------------------------------------------
D-------8^------8^------8^--5--4--------8^-------8^-5--4-3-
A--1-0--8^-1-0--8^-1-0--8^--3--2---1-0--8^-1--0--8^-3--2-1-
E--1-0--6^-1-0--6^-1-0--6^--3--2---1-0--8^-1--0--6^-3--2-1-
A--1-0-----1-0-----1-0------3--2---1-0-----1--0-----3--2-1-
("I am whatever...")

Riff (palm muted)                        Fill
e--------------------------------------|-------------------
B--------------------------------------|-------------------
G--------------------------------------|-------------------
D--------------------------------------|--5---4--3---------
A--------------------------------------|--3---2--1---------
E--------------------------------------|--3---2--1---------
A--0-0-0-0-0-0-0----0-0-0-0-0-0-0--1^--|--3---2--1---------

Outro 1 (fade out)            Outro 2 (fade in)
e---------------------------|------------------------------
B---------------------------|------------------------------
G---------------------------|------------------------------
D---------------------------|------------------------------
A--0m-0--0m-0---0m-0--0m-0--|--0m-0--0m--1-1--0m--1-1------
E--0m-0--0m-0---0m-0--0m-0--|--0m-0--0m--1-1--0m--1-1------
A--0m-0--0m-0---0m-0--0m-0--|--0m-0--0m--1-1--0m--1-1------


Verse A
Verse A, B
Chorus
Verse A
Verse A, B, Riff
Chorus
Verse A, B, Riff
Verse B
Fill
Chorus
Verse B, Outro 1
Outro 2


A remix of the Eminem song. I thinks this is the first time
I've seen Manson do a song with a 7-string guitar.
Добавлено: 15.07.2012
Другие материалы по этой песне:
  • Аккорды и текст

Страница создана 15.07.2012
http://primanota.ru/marilyn-manson/the-way-i-am-chords.htm
Привет, Гость.
Предлагаем пройти революционный курс по гитаре.
Подарок от PrimaNota.Ru, забирай!