PrimaNota.ru - самый крупный в мире бесплатный архив песенных текстов, аккордов, табулатур и нот


Marilyn Manson - President Dead - аккорды и текст, таба, бас-таба, драм-таба, видео

Регистрация Запомнить меня
Войти через:  Facebook Google Twitter Vk Yandex Mail.ru

Marilyn Manson - President Dead - аккорды и текст, таба, бас-таба, драм-таба, видео

Печатать
Просмотров: 365
Авторы музыки: Madonna Wayne Gacy, John 5, Twiggy Ramirez
Авторы текста: Marilyn Manson
President Dead
Marilyn Manson
Song: "President Dead"
Artist: Marilyn Manson
Album: Holy Wood
As tabbed by Joe Muggah

Verse 1           (Three times then: )
e-------6-6-6-6^\3-3-3-3-|----------------------------
B-------x-x-x-x--x-x-x-x-|----------------------------
G-------3-3-3-3^\0-0-0-0-|--7-7-7-7-7-7-7-7/9---------
D-5--2-------------------|--7-7-7-7-7-7-7-7/9---------
A-5--2-------------------|--5-5-5-5-5-5-5-5/7---------
E-3--0-------------------|----------------------------

Chorus A (Guitar 1, all hit 4 times)
e-----------------------------------------------------
B-----------------------------------------------------
G----2--2--5--5---------------------------------------
D-x--2--2--5--5--5--5--4--3---------------------------
A-x--0--0--3--3--5--5--4--3---------------------------
E-x--------------3--3--2--1---------------------------

Chorus B (Guitar 2, all hit 8 times)
e------------------------------------10--12--15-------
B-10--12--13-------------10--12--13---x---x---x-------
G--x---x---x--------------x---x---x---7---9--12-------
D--7---9--10--9--11--12---7---9--10-------------------
A-------------x---x---x-------------------------------
E-------------7---9--10-------------------------------

Verse 2               (Three times then: )
e------x-x-x---------x-x-x----|-----------------------
B------x-x-x---------x-x-x----|-----------------------
G------x-x-x---------x-x-x----|-----------------------
D-5--2-------2-x-x-x-------2--|--7--7--7--7/9---------
A-5--2-------2-x-x-x-------2--|--7--7--7--7/9---------
E-3--0-------0-x-x-x-------0--|--5--5--5--5/7---------

Riff 1 (Guitar 2)
e-----------------------------------------------------
B-----------------------------------------------------
G-----------------------------------------------------
D-----------------------------------------------------
A-2--------2--------------2-------2-------------------
E-----0---------3---0---------0--------3---0----------

Solo  (Guitar 1, played twice very fast)
e--------------------10--9--7--0-------------------3^-
B--------------------------------7--5--3--0--5^-0-----
G------4p0-----7p6------------------------------------
D-----------4------7----------------------------------
A-0h2-------------------------------------------------
E-----------------------------------------------------

Riff 2 (Guitar 1 after solo 1)
e-11--------11--------11-------11---------------------
B----10-10-----10-10-----10-10----10-10---------------
G-----------------------------------------------------
D-----------------------------------------------------
A-----------------------------------------------------
E-----------------------------------------------------

Verse 1
Chorus A,B
Verse 1
Verse 2
Chorus A, B
Riff 1
Riff 1, Solo
Chorus A, Riff 2
Chorus A, B

The solo is really hard to pull off, even if you do
know the tab to it. Good Luck!
     
Добавлено: 19.07.2013
Другие материалы по этой песне:

Страница создана 27.02.2012
http://primanota.ru/marilyn-manson/president-dead-chords.htm
Привет, Гость.
Предлагаем пройти революционный курс по гитаре.
Подарок от PrimaNota.Ru, забирай!