PrimaNota.ru - самый крупный в мире бесплатный архив песенных текстов, аккордов, табулатур и нот


Marilyn Manson - Portrait - таба, видео

Регистрация Запомнить меня
Войти через:  Facebook Google Twitter Vk Yandex Mail.ru

Marilyn Manson - Portrait - таба, видео

Печатать
Просмотров: 114
Artist: Marilyn Manson
Song: Cake and Sodomy

\= slide down
/=slide up
h= harmonic

Ok, so the song starts with a bass riff and some harmonics, i haven't tabbed them 'cos i 
bercowiz just improvises them.

Then you get the first verse:
------------------------|-10---10---10-10-10-|
------------------------|--------------------|
------------------------|--------------------|
------------------------|--------------------|
-9-9-\4-----------------|--------------------|
-7-7-\2-----------------|--------------------|
virgins sold in quantity  herded by heredity
redneck-burnout...               isn't kind?

Interlude x 2:
------------------------------------------------|
------------------------------------------------|
------------------------------------------------|
------------------------------------------------|
-9-9-9-\4/-9-9-9-9-7-7-7-7-7-----4-4-4-4-4------|
-7-7-7—\2/-7-7-7-7-5-5-5-5-5-7-5-2-2-2-2-2-5-2--|

------------------------------------------------|
------------------------------------------------|
------------------------------------------------|
------------------------------------------------|
-9-9-9-\4/-9-9-9-9-7-7-7-7-7-7-4-4-4-12-12-12---|
-7-7-7—\2/-7-7-7-7-5-5-5-5-5-5-2-2-2-10-10-10---|
pornonation, evaluation...
libido, libido...

chorus x 2:
---------------------10-------------------------------------|
---------------------10-------------------------------------|
------------------------------------------------------------|
------------------------------------------------------------|
-9-9--X-X-X-X--7-7------4-4-4-4-4-4-4-4-7-7-7-7-12-12-12-12-|
-7-7--X-X-X-X--5-5------2-2-2-2-2-2-2-2-5-5-5-5-10-10-10-10-|

------------------------------------------------------------|
---------------12-10-10-------------------------------------|
---------------11-9--9--------------------------------------|
------------------------------------------------------------|
-9-9--X\---7-7----------4-4-4-4-4-4-4-4-7-7-7-7-12-12-12-12-|
-7-7--X\---5-5----------2-2-2-2-2-2-2-2-5-5-5-5-10-10-10-10-|

verse2:
-----------------------|---------h24---------h19--X-X-X-X\--|
-----------------------|-----h24---------h19------X-X-X-X\--|
-----------------------|-h24---------h19----------X-X-X-X\--|
-----------------------|------------------------------------|
-9-9-\4----------------|------------------------------------|
-7-7-\2----------------|------------------------------------|
VCR's and vaseline...
Cash in hand...

Interlude x 2:
--------------h21----------h19-----------h24---------------|
----------h19-----h19----------h19-----------h24-----------|
------h19--------------------------------------------------|
-----------------------------------------------------------|
-9-9------------------7-7-----------4-4--------------------|
-7-7------------------5-5-----------2-2--------------------|

verse:
--------------h21----------h19-----------h24---------------|
----------h19-----h19----------h19-----------h24-----------|
------h19--------------------------------------------------|
-----------------------------------------------------------|
-9-9------------------7-7-----------4-4--------------------|
-7-7------------------5-5-----------2-2--------------------|
bible-belt 'round...

--------------h21------------------------------------------|
----------h19-----h19--------------------------------------|
------h19--------------------------------------------------|
-----------------------------------------------------------|
-9-9------------------7-7-7-7-7-7-7-7-4-4-4-4-12-12-12-12--|
-7-7------------------5-5-5-5-5-5-5-5-2-2-2-2-10-10-10-10--|
yeah, right great...

Chorus

This is the solo, bercowiz uses wha and flanger pedals so it may sound a bit different 
the record:
---------------------------------------------------------------------------|
---------------------------------------------------------------------------|
---------------------------------------------------------------------------|
---------------------------------------------------------------------------|
---------------------------------------------------------------------------|
-2--2--2--2--2--2/5--5--5--5--0--5--0--2--2--2--2--2--2/5--5--5--5/7--7--0-|

---------------------------------------------------------------------------|
---------------------------------------------------------------------------|
--------------------------------------------------------------5--------8---|
-----------------------------------------------------------4--------7------|
--------------------------------------------------------4--------7-------4-|
-2--2--2--2--2--2/5--5--5--5--0--5--0--2--2--2--2--5--5--------------------|

--------------|
--------------|
----5--------8|
-4--------7---|
-------7------|
--------------|

Chorus


Song: Lunchbox
Artist: Marilyn Manson
Album: Portrait Of An American Family
Track: 3
Track Length: 4 Minutes 32 Seconds
Tuning: Standard

/ - Slide Up
\ - Slide Down
X - Scratch
: - Let Ring
~ - Vibrato
PM - Palm Mute
h - Hammer On
p - Pull Off
^ - Bend Up
^( ) - Bend Up Then Back Down To Original Note
  

Intro, (0:01-0:26)
e]-------------------------------------------
B]-------------------------------------------
G]--------------7/9-9---------------10^-10---
D]--X-X-X-X-X-X-7/9-9-X-X-X-5-X-X-X--9^- 9---
A]--X-X-X-X-X-X-5/7-7-X-X-X-5-X-X-X----------
E]--X-X-X-X-X-X-------X-X-X-3-X-X-X----------

e]------------------------------  Play the intro. four
B]------------------------------  times, but only play
G]--7/9-9---------------14^(14)-  the 6 scratches at 
D]--7/9-9-X-X-X-5-X-X-X-13^(13)-  the start the first
A]--5/7-7-X-X-X-5-X-X-X---------  time.
E]--------X-X-X-3-X-X-X---------


Pre-Verse, (0:26-0:37)
BRING IT DOWN..............................ON WE PLOW
e]---------------------------------------------------
B]---------------------------------------------------
G]------7------7------7---------------12h14p12-------
D]--2:--7-5-2--7-5-2--7-5-2--12-14-12----------12h14-
A]--2:--5-5-2--5-5-2--5-5-2--------------------------
E]--0:----3-0----3-0----3-0--------------------------


Verse, (0:39-1:02)
e]--------
B]--------
G]--7-----  Play 8X, but on 8th time 
D]--7-5-2-  let the last chord ring 
A]--5-5-2-
E]----3-0-


Chorus, (1:03-1:25) The number of times you play each
                    chord is not exact but you can figure
                    it out.
Iwanna grow up, wanna be................................
e]------------------------------------------------------
B]------------------------------------------------------
G]--99999999-1212121212121212-77777777------------------ 
D]--99999999-1212121212121212-77777777------------------
A]--77777777-1010101010101010-55555555-2222222222222222-
E]-------------------------------------0000000000000000-
                                       |______PM_______|

e]-------------------------------------------------------
B]-------------------------------------------------------
G]-99999999-1212121212121212-1414141414141414------------
D]-99999999-1212121212121212-1414141414141414------------
A]-77777777-1010101010101010-1212121212121212-2222222222-
E]--------------------------------------------0000000000-
                                             |____PM____|


Main Riff, (1:25-1:37)
e]-------------------------------------------------------
B]-------------------------------------------------------
G]-7/9-9-X-X-X-12-X-X-X-10^-10-7/9-9-X-X-X-12-X-X-X-14^-- X2
D]-7/9-9-X-X-X-12-X-X-X--9^--9-7/9-9-X-X-X-12-X-X-X-13^--
A]-5/7-7-X-X-X-10-X-X-X--------5/7-7-X-X-X-10-X-X-X------
E]-------------------------------------------------------


Pre-Chorus, (1:37-2:13)
Next Mother Fucker.............
e]-----------------------------
B]-----------------------------    On final time
G]----------------------7------    add vibrato to
D]--2:-----X-X-X--X-X-X-7-5-2--    last note.
A]--2:-----X-X-X--X-X-X-5-5-2--
E]--0:-----X-X-X--X-X-X---3-0--
          |_____PLay 12X_____|


Chorus, (2:14-2:36)
Just Play This The Same Way As Before.


Little Solo, (2:37-2:45)
e]---------------------------------------
B]---------------------------------------
G]---------------------------------------
D]-----------------------------------2:--
A]------7-7-5-5----------7-7-5-5-----2:--
E]--0-0---------7-7--0-0---------3-3-0:--
   |____Play 3X____|


Keyboard Part Arranged For Guitar, (2:53-3:03)
e]--------------------------------------------
B]--------------------------------------------
G]--------------------------------------------
D]--12--------12--------12--------12----------
A]-----10-7:-----10-7:-----10-7:-----10-7:----
E]--------------------------------------------


Main Solo, (3:04-3:14)
e]----------------------------------------------------------
B]----------------15-------------------------------------15-
G]-------------12----14^(14)-12-14-12-14-12-14-12-14^(14)---
D]-12-12-12-14----------------------------------------------
A]----------------------------------------------------------
E]----------------------------------------------------------

e]----------------------------------------------------------
B]---------15---------15------------------------------------
G]-14^(14)----14^(14)----14^(14)-12-14-12-------------12-14-
D]----------------------------------------14-12-14-12-------
A]----------------------------------------------------------
E]----------------------------------------------------------

e]---------------------
B]---------------------
G]-12-14-14^-14-12-----
D]-----------------14--
A]---------------------
E]---------------------
                   

NOTE:- None Of Marilyn Manson's Guitarist's Ever Play The 
Solo The Same Way  So Just Mess Around With It Until You 
Get Something You Like. The Solo Above Is How I like To 
Play It.


Chorus, (3:17-4:02)
Just Play This The Same Way As Before, But 2X instead Of 1


Outro. (4:07-4:20)
e]------------------------------------
B]------------------------------------
G]-7-------7-------7-------7----------
D]-7-5-2~--7-5-2~--7-5-2~--7-5-2~~~~--
A]-5-5-2~--5-5-2~--5-5-2~--5-5-2~~~~--
E]---3-0~----3-0~----3-0~----3-0~~~~--

You could also play the Little Solo (2:37) as the outro
which is what John 5 ends with on the Last Tour... CD.



Song: Cyclops
Artist: Marilyn Manson
Album: Portrait of an American Family


Intro
e--------------------------------------------------------
B--------------------------------------------------------
G--------------------------9-----------------------------
D-----9-----10-----9--9-------9--------------------------
A--0-----0------0-------0--------------------------------
E--------------------------------------------------------

Riff 1
e--------------3--------------3--------3--------------0--
B--------------1--------------1--------1--------------1--
G--2m-2m-2m-2m-2--2m-2m-2m-2m-2--2m-2m-2--2m-2m-2m-2m-2--
D--2m-2m-2m-2m----2m-2m-2m-2m----2m-2m----2m-2m-2m-2m----
A--0m-0m-0m-0m----0m-0m-0m-0m----0m-0m----0m-0m-0m-0m----
E--------------------------------------------------------

(continued)
e--------------0--------0--------------2--------------2--
B--------------1--------1--------------1--------------1--
G--2m-2m-2m-2m-2--2m-2m-2--2m-2m-2m-2m-2--2m-2m-2m-2m-2--
D--2m-2m-2m-2m----2m-2m----2m-2m-2m-2m----2m-2m-2m-2m----
A--0m-0m-0m-0m----0m-0m----0m-0m-0m-0m----0m-0m-0m-0m----
E--------------------------------------------------------

(continued)
e--------2--------------8--------------8--------8--------
B--------1--------------5--------------5--------5--------
G--2m-2m-2--------------5--------------5--------5--------
D--2m-2m----7m-7m-7m-7m----7m-7m-7m-7m----7m-7m----------
A--0m-0m----7m-7m-7m-7m----7m-7m-7m-7m----7m-7m----------
E-----------5m-5m-5m-5m----5m-5m-5m-5m----5m-5m----------

Bass Verse
G--------------------------------------------------------
D----------------7/--------------------------------7/----
A--------------------------------------------------------
E--0-0-0-0-1-0-------0-0-0-0-1-0------0-0-0-0-1-0--------

Verse 
e--------------------------------------------------------
B--------------------------------------------------------
G----------------------------------5---------------------
D--2-2-2-2-3-2-------2-2-2-2-3-2---5---2-2-2-2-3-2-------
A--2-2-2-2-3-2-------2-2-2-2-3-2---3---2-2-2-2-3-2-------
E--0-0-0-0-1-0-------0-0-0-0-1-0---3---0-0-0-0-1-0-------
("Cyclops woman got one eye...")

(continued)           end on
e--------------------|---3-------------------------------
B--------------------|---2-------------------------------
G----------------6---|---0-------------------------------
D--2-2-2-2-3-2---5---|-----------------------------------
A--2-2-2-2-3-2---4---|-----------------------------------
E--0-0-0-0-1-0-------|-----------------------------------

Chorus
e--------------------------------------------------------
B--------------------------------------------------------
G--0h2-------0h2-------0h2-------2p0--0------------------
D--0h2-------0h2-------0h2-------2p0--0------------------
A--0---0--0--0---0--0--0---0--0--0----0------------------
E--------------------------------------------------------
("She can't see nothing...")

Fill
e--------------------------------------------------------
B--------------------------------------------------------
G--------------------------------------------------------
D--2-2-2-2-3-2-----2-2-2-2-3-2---------------------------
A--2-2-2-2-3-2-----2-2-2-2-3-2--2h3p2--------------------
E--0-0-0-0-1-0-----0-0-0-0-1-0---------------------------

Riff 2
e--------------------------------------------------------
B--------------------------------------------------------
G--------------------------------------------------------
D--2m-2m-2m-2m-2m---2m-2m-2m-2m-2m-----------------------
A--2m-2m-2m-2m-2m---2m-2m-2m-2m-2m-----------------------
E--0m-0m-0m-0m-0m---0m-0m-0m-0m-0m-----------------------

Solo
e------17--15--------------------------------------------
B--13---------17^--17-17--13--10-10-10--10-13\10-10-8-10-
G--------------------------------------------------------
D--------------------------------------------------------
A--------------------------------------------------------
E--------------------------------------------------------

(continued)
e---------------------------------------------12---------
B--------------------------------------------------------
G--9-10-12--9\--------------------------14-12-----9------
D---------------7--7-9-10-7-------------------------9----
A----------------------------7/8--8/10-------------------
E--------------------------------------------------------

(continued)
e-----------------------------------------------0h7h8----
B-----------------------10p9p0--10p9p0--10p9p0-----------
G----------------9/16^-----------------------------------
D--8h9-8h9-8h9-------------------------------------------
A--------------------------------------------------------
E--------------------------------------------------------

(continued)
e--0h7h8--0h7h8--5--12h13p12h13p12h13p12-12^-------------
B--------------------------------------------13-13\12-13-
G--------------------------------------------------------
D--------------------------------------------------------
A--------------------------------------------------------
E--------------------------------------------------------

Intro
Riff 1
Bass Verse, Verse
Chorus
Bass Verse, Fill
Bass Verse, Verse
Chorus
Verse
Riff 2
Riff 1
Verse, Solo



ARTIST: MARILYN MANSON
TITLE: DOPE HAT
ALBUM: PORTRAIT OF AN AMERICAN FAMILY


[INTRO]
RIFF 1
e|----------------------------|
b|----------------------------|
g|----------------------5--4--|
D|-444444-777777-444444-5--4--|
A|-444444-777777-444444-3--2--|
E|-222222-555555-222222-------|  (X2)

[SOLO 1]
e|-2-3/9-12\8-5/7-7--12--------12-------|
b|----------------------12-10-----12-13-|
g|--------------------------------------|
D|--------------------------------------|
A|--------------------------------------|
E|--------------------------------------|

RIFF 2
e|--------------------------|
b|--------------------------|
g|------6-6--5-5--4-4-------|
D|-4-4--6-6--5-5--4-4-------|
A|-4-4--4-4--3-3--2-2-------|
E|-2-2----------------------| (X2)

[VERSES] ONLY BASS

I peek into the hole
I struggle for control
the children love the show
but they fail to see the anguish in my eyes
fail to see the anguish in my eyes

[SOLO 2]
e|---9---8888888\7--------------------------------------8-8/12----|
b|-7---7--------7--------7-1010101010--7--------9p7h9p7h9p7h9p7---|
g|----------------999999---------6-5-4----------------------------|
D|----------------------------------------------------------------|
A|----------------------------------------------------------------|
E|----------------------------------------------------------------|

[VERSES 2]
RIFF 2
e|--------------------------|
b|--------------------------|
g|------6-6--5-5--4-4-------|
D|-4-4--6-6--5-5--4-4-------|
A|-4-4--4-4--3-3--2-2-------|
E|-2-2----------------------| (X8)
I scratch around the brim
I let my mind give in
The crowd begins to grin
but they seem to scream as darkness fills my eyes
seem to scream as darkness fills my eyes
it's no suprise

[INTERVAL]
e|------------|
b|------------|
g|------------|
D|-4-------4--|
A|-4-------4--|
E|-2-------2--|

[CHORUS]
RIFF 1
e|----------------------------|
b|----------------------------|
g|----------------------5--4--|
D|-444444-777777-444444-5--4--|
A|-444444-777777-444444-3--2--|
E|-222222-555555-222222-------|  (X2)
Fail to see the tragic
Turn it into magic

[BRIDGE]

E          C                  E        C
My big top tricks will always make you happy

F#         D               F#      D
But we all know the hat is wearing me

RIFF 3
e|--------------------------------------------|
b|--------------------------------------------|
g|-11-11-11-10-10-10-999-888-777-666-555-4----|
D|-11-11-11-10-10-10-999-888-777-666-555-4--4-|
A|--9--9--9--8--8--8-777-666-555-444-333-2--4-|
E|------------------------------------------2-|

[VERSES]
RIFF 2
e|--------------------------|
b|--------------------------|
g|------6-6--5-5--4-4-------|
D|-4-4--6-6--5-5--4-4-------|
A|-4-4--4-4--3-3--2-2-------|
E|-2-2----------------------| (X12)
My bag is in the hat
It's filled with this and that
My vision's getting fat
the rabbits just a monkey in disguise
stars and pills and needles dance before our eyes
They will bite the hand
If it's slower than
the quickness of their scrutinizing eyes

[SOLO 3]
e|-------------------------0000-2-0-0-2-0---0---|
b|---------------------5------------------2---2-|
g|--------2-2222-4-5-6---6----------------------|
D|-4-4444---------------------------------------|
A|----------------------------------------------|
E|----------------------------------------------|

e|-000-2-0-2-0-2-0-2/5-55/9/14-17-17-17-17/16--|
b|---------------------------------------------|
g|---------------------------------------------|
D|---------------------------------------------|
A|---------------------------------------------|
E|---------------------------------------------|

[CHORUS]
RIFF 1
e|----------------------------|
b|----------------------------|
g|----------------------5--4--|
D|-444444-777777-444444-5--4--|
A|-444444-777777-444444-3--2--|
E|-222222-555555-222222-------|  (X2)
Fail to see the tragic
Turn it into magic

[BRIDGE]

E          C                  E        C
My big top tricks will always make you happy

F#         D               F#      D
But we all know the hat is wearing me

E       C                 E        C
Chicanery will always make you happy

F#         D               F#      D
But we all know the hat is wearing me

RIFF 3
e|--------------------------------------------|
b|--------------------------------------------|
g|-11-11-11-10-10-10-999-888-777-666-555-4----|
D|-11-11-11-10-10-10-999-888-777-666-555-4--4-|
A|--9--9--9--8--8--8-777-666-555-444-333-2--4-|
E|------------------------------------------2-|

[END SONG]
e|-----|
b|-----|
g|-----|
D|-5/4-|
A|-5/4-|
E|-3/2-|




first....3rd of album
Добавлено: 04.09.2013
Другие материалы по этой песне:
  • Аккорды и текст

Страница создана 04.09.2013
http://primanota.ru/marilyn-manson/portrait-chords.htm
Привет, Гость.
Предлагаем пройти революционный курс по гитаре.
Подарок от PrimaNota.Ru, забирай!