PrimaNota.ru - самый крупный в мире бесплатный архив песенных текстов, аккордов, табулатур и нот


Marilyn Manson - Iron Man - таба, видео

Регистрация Запомнить меня
Войти через:  Facebook Google Twitter Vk Yandex Mail.ru

Marilyn Manson - Iron Man - таба, видео

Печатать
Просмотров: 152
Уроки эстрадного вокала в Санкт-Петербурге
Авторы музыки: Geezer Butler, Ozzy Osbourne, Bill Ward, Tony Iommi
Авторы текста: Geezer Butler
Song: Iron Man
Artist: Marilyn Manson
Album: From Highway to Hell
As tabbed by Joe Muggah

Verse A (Guitar 1)
e----------------------------------------------------------
B----------------------------------------------------------
G-----------------------12\11-12\11-12\11------------------
D--9--12--12/14--14-14--12\11-12\11-12\11-12--12/14--14-14-
A--9--12--12/14--14-14--10\-9-10\-9-10\-9-12--12/14--14-14-
E--7--10--10/12--12-12--------------------10--10/12--12-12-

Verse B (Guitar 2)
e-----------------------15-14-15-14-15-14------------------
B--12---15---15--17-17---------------------15---15---17-17-
G----------------------------------------------------------
D----------------------------------------------------------
A----------------------------------------------------------
E----------------------------------------------------------

Riff A (Guitar 1)
e----------------------------------------------------------
B----------------------------------------------------------
G----------------------------------------------------------
D----------------------------------------------------------
A----------------------------------------------------------
E--7--7--7--10^---7---6--5--5--5--5----0-4--5--5--6--------

Riff B (Guitar 2)
e----------------------------------------------------------
B----------------------------------------------------------
G--6-----6---7---6---4----7---7\6---4----7---7\6--4--------
D----------------------------------------------------------
A----------------------------------------------------------
E----------------------------------------------------------

(continued)
e--10---10\9---7--7---5----5---5/7--7---7\-----------------
B----------------------------------------------------------
G----------------------------------------------------------
D----------------------------------------------------------
A----------------------------------------------------------
E----------------------------------------------------------

Bridge
e---------0------------2-----------------------------------
B---------0------3-----3-----------------------------------
G---------0------2-----2-----------------------------------
D--2------2------0-----0---------------------------7-8-9---
A--2------2---------------------------------7-8-9----------
E--0------0-----------------7--7--7--10-12-----------------
                          |--------played twice---------|

Outro A (Guitar 1)
e----------------------------------------------------------
B----------------------------------------------------------
G--9-9-9-9-9--7-7-7-7-7--6-6-6-6-6--5-5-5--4-4-4-----------
D--9-9-9-9-9--7-7-7-7-7--6-6-6-6-6--5-5-5--4-4-4-----------
A--7-7-7-7-7--5-5-5-5-5--4-4-4-4-4--3-3-3--2-2-2-----------
E----------------------------------------------------------

Outro B (Guitar 2)
e--10--12-10-12--10h12p10--10-12-10-12--14-15-14-15-14-12--
B----------------------------------------------------------
G----------------------------------------------------------
D----------------------------------------------------------
A----------------------------------------------------------
E----------------------------------------------------------


Verse A
Verse A, B
Verse A
Riff A
Riff A, B
Verse A
Verse A, B
Verse A
Bridge
Verse A
Verse A, B
Verse A
Bridge
Verse A
Verse A, B
Riff A
Verse A
Verse A, B
Outro A, B

An old remake (using Son of Sam) of the classic Black
Sabbath song.
     
Добавлено: 26.11.2013
Другие материалы по этой песне:
  • Аккорды и текст

Страница создана 26.11.2013
http://primanota.ru/marilyn-manson/iron-man-chords.htm
Привет, Гость.
Предлагаем пройти революционный курс по гитаре.
Подарок от PrimaNota.Ru, забирай!