PrimaNota.ru - самый крупный в мире бесплатный архив песенных текстов, аккордов, табулатур и нот


Marilyn Manson - I Want To Kill You Like They Do In The Movies - текст песни, таба, видео

Регистрация Запомнить меня
Войти через:  Facebook Google Twitter Vk Yandex Mail.ru

Marilyn Manson - I Want To Kill You Like They Do In The Movies - текст песни, таба, видео

Печатать
Просмотров: 227
Авторы музыки: Chris Vrenna, Twiggy Ramirez
Авторы текста: Marilyn Manson
Marilyn Manson - I Want To Kill You Like They Do In The Movies

Standard Tuning

/  Slide Up 
\  Slide Down 
h  Hammer On 
p  Pull Off  
b  Bend 
r   Release 
v  Vibrato




Riff A
0:18 - 1:32
E|-----------------------------------|
B|-----------------------------------|
G|-----------------------------------|
D|-----------------------------------|
A|--------7-----7-----7--------------|
E|--0--------0-----0-------7--9--10--|



Riff B 
1:32 - 1:47 (The Riff A continues playing behind this riff)
E|--------------------------------|
B|--------------------------------|
G|--------------------------------|
D|--------------------------------|  x4
A|--12-12-12-12-12-X--9----7/9-9--|
E|--10-10-10-10-10-X--7----5/7-7--|



Riff A
1:47 - 3:02
E|-----------------------------------|
B|-----------------------------------|
G|-----------------------------------|
D|-----------------------------------|
A|--------7-----7-----7--------------|
E|--0--------0-----0-------7--9--10--|



Riff B
3:02 - 3:16  (The Riff A continues playing behind this riff)
E|--------------------------------|
B|--------------------------------|
G|--------------------------------|
D|--------------------------------|  x4
A|--12-12-12-12-12-X--9----7/9-9--|
E|--10-10-10-10-10-X--7----5/7-7--|



Riff C
3:16 - 3:46
E|------------------------------------|
B|------------------------------------|
G|------------------------------------|
D|------------------------------------|
A|--------9-----7-----7-----7--9--10--|
E|--0--------0-----0-----0------------|



Riff D
3:46 - 9:01
E|-----------------------------------------------------------------------------------------------|
B|-----------------------------------------------------------------------------------------------|
G|-----------------------------------------------------------------------------------------------|
D|--4-4--4-4--4-4--4-4---4-4-4---4-4--4-4--4-4--4-4--4-4--4-4--4-4---4-4-4---4-4--4-4---4-4-4-4--|
A|--4-4--4-4--4-4--4-4---4-4-4---4-4--4-4--4-4--4-4--4-4--4-4--4-4---4-4-4---4-4--4-4---4-4-4-4--|
E|--2-2--2-2--2-2--2-2---2-2-2---2-2--2-2--2-2--2-2--2-2--2-2--2-2---2-2-2---2-2--2-2---2-2-2-2--|


Riff E
7:45 - 9:01  (along with Riff D)
E|-------------------------------------------------------------------------|
B|--7-7-X-X-7-7-X-X-7-7-X-X-7-7-X-X-7-7-X-X-7-7-X-X-7-7-X-X-10-10-10-10----|
G|--6-6-X-X-6-6-X-X-6-6-X-X-6-6-X-X-6-6-X-X-6-6-X-X-6-6-X-X-9--9--9--9-----|
D|--4-4-X-X-4-4-X-X-4-4-X-X-4-4-X-X-4-4-X-X-4-4-X-X-4-4-X-X----------------|
A|-------------------------------------------------------------------------|
E|-------------------------------------------------------------------------|
Добавлено: 19.05.2012
Другие материалы по этой песне:
  • Аккорды и текст

Страница создана 19.05.2012
http://primanota.ru/marilyn-manson/i-want-to-kill-you-like-they-do-in-the-movies-chords.htm
Привет, Гость.
Предлагаем пройти революционный курс по гитаре.
Подарок от PrimaNota.Ru, забирай!