PrimaNota.ru - самый крупный в мире бесплатный архив песенных текстов, аккордов, табулатур и нот


Marillion - Punch & Judy - аккорды и текст, таба, видео

Регистрация Запомнить меня
Войти через:  Facebook Google Twitter Vk Yandex Mail.ru

Marillion - Punch & Judy - аккорды и текст, таба, видео

Печатать
Просмотров: 252
Punch & Judy
Marillion
                                          Artist - Marillion
                                         ********************
                                         Song - Punch & Judy 
                                        *********************
                                           Album - Fugazi
                                          ****************
                                        Tabbed By - Ayreon77
                                       **********************




INTRO - Guitar Chords - F#m D B E X2
******
SECTION 1
**********
 F#m               D                 B                 E
[-----------------|-----------------|-----------------|-----------------]
[-----------------|-----------------|-----------------|-----------------]
[-----------------|-----------2--4--|-----------------|-----------------]
[-----------------|-----2--4--------|-----------2--4--|-----------------]
[-----------2--4--|--5--------------|--2--4--6--------|-----------0--2--]
[--2--4--5--------|-----------------|-----------------|--0--2--4--------]X2

-----------------------------------------
F#m
Punch
Punch and Judy
          B
Punch and Judy
          D
Punch and Judy

-----------------------------------------
VERSE 1
********
F#m
Washing machine, pinstripe dreams
A
Stripped the glass from a beauty queen
          B                  D
Punch and Judy, Judy, Judy.  Judy, Judy, Judy.
F#m
Found the nest, in the Daily Express
A
Met the vicar in a holy vest
          B
Punch and Judy
          D
Punch and Judy

-----------------------------------------
VERSE 2
********
F#m
Brought up the children Church of E
      A
Now I vegetate with a colour TV
B
Worst ever thing that ever happened to me
        D
Oh, for D.I.V.O.R.C.E.
   F#m      A
Oh Judy

SECTION 2
**********
[--------9-12-9-|----------------]
[-----10--------|----------------]
[--11-----------|--7-6-4---------]
[---------------|--------7-6-7-4-]
[---------------|----------------]
[---------------|----------------]


-----------------------------------------
CHORUS               This is kinda hard to hear, sounds like its doing this
*******                                            [---------]    
F#m                  D                             [-7-9-7-9-]
Whatever happened to pillow fights                 [---------]
B                    E                             [---------]            
Whatever happened to jeans so tight, Friday nights [---------]             
F#m                  D                             [---------]           
Whatever happened to lover's lane                   
B                    E
Whatever happened to passion games
A                   F#m
Sunday walks in the pouring rain  Sa Sa


-----------------------------------------
F#m
Punch
Punch
Punch and Judy
A
Punch
Punch
Punch and Judy
B
Punch
Punch
Punch and Judy
D
Punch
Punch
Punch and Judy

-----------------------------------------
VERSE 3
********
F#m                               A
Curling tongs, mogadons, "I got a headache baby, don't take so long"
B
Single beds, middle age dread
D
Losing the war in the Waistlands spread
F#m
Who left the cap of the toothpaste tube
A
Who forgot to flush the loo
           B
Leave your sweaty socks outside the door 
D                                       F#m    D  B  E
Don't walk across my polished floor, oh Judy

-----------------------------------------
SECTION 2
-----------------------------------------

CHORUS
*******                                 (Repeat notes above)
F#m                  D
Whatever happened to morning smiles
B                    E
Whatever happened to wicked wiles, permissive styles
F#m                  D
Whatever happened to twinkling eyes
B                    E
Whatever happened to hard fast drives
A              F#m
Complements on unnatural size

-----------------------------------------
F#m
Punch
Punch
Punch and Judy
A
Punch
Punch
Punch and Judy
B
Punch
Punch
Punch and Judy
D
Punch
Punch
Punch and Judy

-----------------------------------------
VERSE 3
********
F#m
Propping up a bar, family car
A
Sweating on a mortgage as a balding clark
          B                  D
Punch and Judy, Judy, Judy.  Judy, Judy, Judy.
F#m
World war three, suburbanshee
A
Just slip her these pills and I'll be free.
        B                   A
No more Judy, Judy, Judy no more
       
Goodbye Judy

-----------------------------------------
SECTION 1 - F#m D B E X2
**********
-----------------------------------------
Добавлено: 22.06.2013
Другие материалы по этой песне:
  • Аккорды и текст

Страница создана 08.06.2012
http://primanota.ru/marillion/punch-and-judy-chords.htm
Привет, Гость.
Предлагаем пройти революционный курс по гитаре.
Подарок от PrimaNota.Ru, забирай!