PrimaNota.ru - самый крупный в мире бесплатный архив песенных текстов, аккордов, табулатур и нот


Marillion - Gazpacho - текст песни, таба, бас-таба, видео

Регистрация Запомнить меня
Войти через:  Facebook Google Twitter Vk Yandex Mail.ru

Marillion - Gazpacho - текст песни, таба, бас-таба, видео

Печатать
Просмотров: 76
Авторы музыки: Steve Rothery, Pete Trewavas, Ian Mosley, Mark Kelly, Steve Hogarth
Авторы текста: John Helmer, Steve Hogarth
====================

Tabbed by Mike C (smilock@hotmail.com)

Tab Explanation
===============

s       Slide
h       Hammer-on
p       Pull-off
T       Tap
B       Bend the note to the fret after the B
R       Release back to the originally bent note
A.H.    Artificial Harmonic
m       Palm Muted
//      Trem Pick (Pick as fast as possible)

This track has 3 guitars. Gtr. 1 is a clean electric with a bit of delay. Gtr. 2
is the same and basically doubles Gtr. 1 up to the outro where the octave is
different but the tune is basically the same. Gtr. 3 is a distorted electric
which is played in the outro but I haven't worried about tabbing this as it's
very quiet anyway.

Gtr. 1 - Clean Electric w/delay
Gtr. 2 - Clean Electric w/delay
==============================

*** CAPO 8TH FRET ***

Intro
=====
e|---0---0---0-0---0---0---0-0-|
B|-4---2---0-----4---2---0-----|
G|-----------------------------|
D|-----------------------------|
A|-----------------------------|
E|-----------------------------|

Verse 1 (same as intro)
=======
Saw you walking on your velvet lawn
Is it lonely on the moon? 
You took a dive and swallowed all you could 
Did you drink too much too soon? 
Nothing left for you to fight about 
And no one wants to see you try 
The nearest neighbours are a mile away
Does the ocean hear you cry? 

Chorus
======
e|-------0-----0-----0----------|
B|-----0-----0-----0-----0---0--|
G|---2-----1--------------------| x 4
D|-4-------------2-----4--------|
A|-------------------------2----|
E|------------------------------|

e|-------0-----0-----0----------|-------0---------------------|
B|-----0-----0-----0-----0---0--|-----0-------0---0---0---0---|
G|---2-----1--------------------|---2-------2---1---2---1-----|
D|-4-------------2-----4--------|-2-------4-----------------2-|
A|-------------------------2----|-----------------------------|
E|------------------------------|-----------------------------|
Punching at the sky 
They say the King is losin' his grip again
They said you're bullet proof, they said you feel no pain 
It seems the hero is misunderstood again 

Verse 2 (as verse 1)
=======
Is it love or is it surgery 
Makes her seem so ill at ease
As she's begging you to please calm down
In her silk Armani on her knees
Did you carry out those threats I heard 
Or were you only playing macho?
And the stains on her Versace scarf
Were they really just Gazpacho? 

Chorus (as before)
======
They say the King is watching his back again
They say the King is losing his grip again 
Raging like a bull to an empty ring 
D'you think they will forgive a hero anything?

Interlude
=========
e|-0--0--0--0-|
B|-0--0--3--5-|
G|-2--4--0--2-|
D|-2--4--2--2-| (Gtr. 1 strums)
A|-0--0--0--0-|
E|------------|
Now the ring is just a band of gold 
And your wife needs police protection 
While you're sparring with the journalists 
You're trying to win back her affection 
Is this what it means to be a man 
Boxing up all your emotion
So now she's gone and you're alone at last
You can tell it to the ocean 

Chorus (as before)
======
They say the King is losing his grip again 
They say the King is countin' his numbered days
You never lost a fight in your whole life 
You never had no trouble sleepin' through the night 
The bottle and the doctor get you through the day
The boys who run the house'll make it all okay
You think they will forgive a hero anything 
Maybe Hollywood
But maybe then again 

Outro
=====
e|-----------------------------------|
B|-------------------------------1-0-|
G|-----0-------0---------0-----------| (Gtr. 1)
D|---2-----2s4---4-----0---0---0-----|
A|-0-----0---------0-3---------------|
E|---------------------------3-------|
 |
e|-------------3-2-------------------|
B|-------------------1-3---3-----1-0-|
G|-2---0-----------2-----0---0-------| (Gtr. 2)
D|---2-----2s4-----------------0-----|
A|-------0---------------------------|
E|-----------------------------------|
Now the ring is just a band of gold
Drive the road 
Добавлено: 14.11.2014
Другие материалы по этой песне:
  • Аккорды и текст

Страница создана 24.07.2012
http://primanota.ru/marillion/gazpacho-chords.htm
Привет, Гость.
Предлагаем пройти революционный курс по гитаре.
Подарок от PrimaNota.Ru, забирай!