PrimaNota.ru - самый крупный в мире бесплатный архив песенных текстов, аккордов, табулатур и нот


Marillion - Exile On Princes Street - аккорды и текст, видео

Регистрация Запомнить меня
Войти через:  Facebook Google Twitter Vk Yandex Mail.ru

Marillion - Exile On Princes Street - аккорды и текст, видео

Печатать
Просмотров: 130
Авторы музыки: Steve Rothery, Fish, Pete Trewavas, Ian Mosley, Mark Kelly
Авторы текста: Fish
Exile On Princes Street
Marillion
-----------------------------------------------------------------------------
                                         Artist - Marillion
                                        ********************
                                   Song - Exile On Princes Street
                                  ********************************
                                    Album - Clutching At Straws 
                                   *****************************
                                        Tabbed By - Ayreon77
                                       **********************
-----------------------------------------------------------------------------
Tuning = Standard



INTRO
******
Play This with the verse until riff 2 comes in
RIFF 1 - G D G Bm
*******
        p
e|-0-2-5-2----|
B|---------3--|
G|------------|
D|------------|
A|------------|
E|------------|

--------------------------------
RIFF 2
******* p         p
e|-0-2-5-2---0-2-5-2---|-3-2---3-2---|
B|---------3---------3-|-----3-----3-|
G|---------------------|-------------|
D|---------------------|-------------|
A|---------------------|-------------|
E|---------------------|-------------|


There is no actual guitar chord for the verse just the RIFFS, so here is the keyboard chords.
**********************************************************************************************

--------------------------------
RIFF 1
VERSE 1
********
G                          D
  I saw a blue umbrella in Princes Street Garden 
G                                  Bm
  Heading out west for the Lothian Road 
G                                     D
  An evening news stuffed deep in the pocket 
                       G            Bm
Little did I know that even a heavy load 
G                               D
  I found us walking Grierson's dockyards 
G                                          Bm
  Where the only thing working was foreign film crews 
G                          D
  Making an impressive documentary 
                            Bm
For the big news ??? To the satellite 

--------------------------------
RIFF 2
CHORUS
*******
Em              G                D
  And all we're left with is the black black oil 
Em                G               D
  With a sense of pride and identity 
Em           G              D
  The waters left behind we should forget
     Em         G             D
Laid low in the books of history 


--------------------------------
RIFF 1
VERSE 2
*********
G                                 D
  I saw the starlings wheel round Georgian spires 
G                            Bm
  Gathering on patrol in the skies 
G                                    D
  In the distance burns the flame of Grangemouth 
                           G                   Bm
And the dream is lost everything what it could inspire 
G                                    D
  From the take you know there is no distance 
G                                 Bm
  How we talk about in the secret affairs 
G                          D
  Taking our ride into the distance 
                                G
To be what it was or could have been 
                   Bm
What I should have said 

--------------------------------
RIFF 2
CHORUS
*******
Em              G                D
  And all we're left with is the black black oil 
Em              G                 D
  With a Strong sense of National pride
Em             G                  D
  Till we take some more steps to unity, Take it back to me
        Em        G               D
Take it back In a city run out of luck 


--------------------------------
RIFF 1
SYNTH - G D G Bm X2
******
--------------------------------
RIFF 1
VERSE 3
********
G                                D
  And all we're left with is the black, black oil
G                                 Bm
  With a strong sense of national pride 
G                     D
  Calling the ??? for identity 
                            G
What it meant to me, what I said 
                   Bm
What we could have had 
G                          D
  I saw a blue umbrella in Princes Street Gardens 
G                                  Bm
  Heading out west for the Lothian Road 
G                                     D
  An evening news stuffed deep in the pocket 
                       G                    Bm
Little did I know that even carring a heavy load 


--------------------------------
RIFF 2
CHORUS
*******
Em              G                D
  And now we're left with is the black black oil 
Em              G                 D
  With a strong sense of national pride 
Em          G                   D
  Calling a name in the sake of unity 
                                 Em
What it means to me you'll never know
G              D
  You'll never know 
Em             G                 D
  I see myself forced in servant exile 
Em        G                   D
  Turning around at another's command 
Em      G              D
  All I want to see is identity  
                               Em
What I could have been, What I did 
G            D
  Could have been 

--------------------------------
OUTRO
******
Em  G         D
     Internal exile 
Em  G         D
     Internal exile 
Em  G         D
     Internal exile 
Em  G         D
     Internal exile 


--------------------------------
SLIDE GUITAR
*************
This is the slide guitar that starts at 03:35.
                                  03:58      
03:35        s                       s   s  04:05     04:11             s  s
e|--s---s---8\10-|--s---s---s----|-15\17-\-|--s-s----|--s---10--10-12-12\15/14----|
B|-8\10-\--------|-8\10-\--8\7---|---------|-7\8/7---|-8\10--------------------15-|
G|---------------|-------------7-|---------|-------7-|----------------------------|
D|---------------|---------------|---------|---------|----------------------------|
A|---------------|---------------|---------|---------|----------------------------|
E|---------------|---------------|---------|---------|----------------------------|
                               04:24
04:18               s  s              s  s      s          s   s    s      s
e|--s---10--10-12-12\15/14----|-17--14\15/14--15\14-17-|-17\22-\--17\22--17\22~~~~~~~~-|
B|-8\10--------------------15-|------------------------|-------------------------------|
G|----------------------------|------------------------|-------------------------------|
D|----------------------------|------------------------|-------------------------------|
A|----------------------------|------------------------|-------------------------------|
E|----------------------------|------------------------|-------------------------------|

04:36
     s             s             s           s  s             s             s
e|-12\10----10-|-12\10----10-|-12\10----10-10\12/10----10-|-12\10----10-|-12\10----10-|---------s----|
B|-------10----|-------10----|-------10-------------10----|-------10----|-------10----|-8-7----8\7---|
G|-------------|-------------|----------------------------|-------------|-------------|-----7------7-|
D|-------------|-------------|----------------------------|-------------|-------------|--------------|
A|-------------|-------------|----------------------------|-------------|-------------|--------------|
E|-------------|-------------|----------------------------|-------------|-------------|--------------|
                                                05:00
04:48                                              s            s 
e|------s-------s------------s--s----s------10-|-14\15-14-----14\15-14------s------|
B|-5-7-8\7-8-7-8\10-10--8-8-8\10/8--5\7-7------|----------15-----------15-16\10-10-|
G|---------------------------------------------|-----------------------------------|
D|---------------------------------------------|-----------------------------------|
A|---------------------------------------------|-----------------------------------|
E|---------------------------------------------|-----------------------------------|

        s                s                 s      s         s                s
e|-14-14\15----s---17--17\19-17--17-|-22-17\22--17\22--17-20\22-|-22----22-22\24--------|
B|----------15-\17------------------|---------------------------|----22-----------19----|
G|----------------------------------|---------------------------|--------------------19-|
D|----------------------------------|---------------------------|-----------------------|
A|----------------------------------|---------------------------|-----------------------|
E|----------------------------------|---------------------------|-----------------------|

OUTRO
******
This is a different guitar than the slide.
05:23                 fading out.............
e|------------h-p--------|---------------------10-10-|
B|-10--8-7-8-7-8-7-------|-----b-r---s---10-12-------|
G|-----------------9-7-7-|-7-9-9--7-9\11-------------|
D|-----------------------|---------------------------|
A|-----------------------|---------------------------|
E|-----------------------|---------------------------|


ENJOY..........
Добавлено: 30.07.2015
Другие материалы по этой песне:
  • Аккорды и текст

Страница создана 30.07.2015
http://primanota.ru/marillion/exile-on-princes-street-chords.htm
Привет, Гость.
Предлагаем пройти революционный курс по гитаре.
Подарок от PrimaNota.Ru, забирай!