PrimaNota.ru - самый крупный в мире бесплатный архив песенных текстов, аккордов, табулатур и нот


Marika Hackman - Drown - таба, видео

Регистрация Запомнить меня
Войти через:  Facebook Google Twitter Vk Yandex Mail.ru

Marika Hackman - Drown - таба, видео

Печатать
Просмотров: 175
No capo
standard tuning


Intro

E|--------------------------------------|
B|--------0--------0--------0--------0--|
G|-----0--------0--------0--------0-----|   X2
D|--5--------5--------5--------5--------|
A|--------------------------------------|
E|--------------------------------------|


Verse 1

E|-------------------------------------------------------------------------------------------------|
B|-----0-----0-----0-----0-----0-----0-----0-----0-----0-----0-----0-----0-----0-----0-----0-----0-|
G|---0-----0-----0-----0-----0-----0-----0-----0-----0-----0-----0-----0-----0-----0-----0-----0---|
D|-5-----5-----4-----4-----2-----2-----2-----0-----2-----2-----0-----0-----2-----2-----2-----2-----|
A|-------------------------------------------------------------------------------------------------|
E|-------------------------------------------------------------------------------------------------|

        Oh, I am bold                          As brass posing as gold

E|-------------------------------------------------------------------------------------------------|
B|-----0-----0-----0-----0-----0-----0-----0-----0-----0-----0-----0-----0-----0-----0-----0-----0-|
G|---0-----0-----0-----0-----0-----0-----0-----0-----0-----0-----0-----0-----0-----0-----0-----0---|
D|-5-----5-----4-----4-----2-----2-----2-----0-----2-----2-----0-----0-----2-----2-----2-----2-----|
A|-------------------------------------------------------------------------------------------------|
E|-------------------------------------------------------------------------------------------------|

         You can shine me all you want          But I am hard as I am cold


E|-------------------------------------------------------------------------------------------------|
B|-----0-----0-----0-----0-----0-----0-----0-----0-----0-----0-----0-----0-----0-----0-----0-----0-|
G|---0-----0-----0-----0-----0-----0-----0-----0-----0-----0-----0-----0-----0-----0-----0-----0---|
D|-5-----5-----4-----4-----2-----2-----2-----0-----2-----2-----1-----1-----2-----2-----2-----2-----|
A|-------------------------------------------------------------------------------------------------|
E|-------------------------------------------------------------------------------------------------|

        To know your faults                       To know yourself


E|-------------------------------------------------------------------------------------|
B|-----0-----0-----0-----0-----0-----0-------------------------------------------------|
G|---0-----0-----0-----0-----0-----0-------0-----0-----0-----0-----0-----0-----0-----0-|
D|-5-----5-----4-----4-----2-----2-------2-----2-----2-----2-----2-----2-----2-----2---|
A|-------------------------------------3-----3-----3-----3-----3-----3-----3-----3-----|
E|-------------------------------------------------------------------------------------|


        I       suit      me            well


E|--------------------------------------|
B|--------0--------0--------0--------0--|
G|-----0--------0--------0--------0-----|   X2
D|--5--------5--------5--------5--------|
A|--------------------------------------|
E|--------------------------------------|
               (Break)


Verse 2

E|-------------------------------------------------------------------------------------------------|
B|-----0-----0-----0-----0-----0-----0-----0-----0-----0-----0-----0-----0-----0-----0-----0-----0-|
G|---0-----0-----0-----0-----0-----0-----0-----0-----0-----0-----0-----0-----0-----0-----0-----0---|
D|-5-----5-----4-----4-----2-----2-----2-----0-----2-----2-----0-----0-----2-----2-----2-----2-----|
A|-------------------------------------------------------------------------------------------------|
E|-------------------------------------------------------------------------------------------------|

        And I was born                       With a healthy appetite


E|-------------------------------------------------------------------------------------------------|
B|-----0-----0-----0-----0-----0-----0-----0-----0-----0-----0-----0-----0-----0-----0-----0-----0-|
G|---0-----0-----0-----0-----0-----0-----0-----0-----0-----0-----0-----0-----0-----0-----0-----0---|
D|-5-----5-----4-----4-----2-----2-----2-----0-----2-----2-----0-----0-----2-----2-----2-----2-----|
A|-------------------------------------------------------------------------------------------------|
E|-------------------------------------------------------------------------------------------------|

        For all that glisters                   White and pure in light

E|-------------------------------------------------------------------------------------------------|
B|-----0-----0-----0-----0-----0-----0-----0-----0-----0-----0-----0-----0-----0-----0-----0-----0-|
G|---0-----0-----0-----0-----0-----0-----0-----0-----0-----0-----0-----0-----0-----0-----0-----0---|
D|-5-----5-----4-----4-----2-----2-----2-----0-----2-----2-----1-----1-----2-----2-----2-----2-----|
A|-------------------------------------------------------------------------------------------------|
E|-------------------------------------------------------------------------------------------------|

        Identify                             Your wants,       Your heart.               
     Well,


E|-------------------------------------------------------------------------------------|
B|-----0-----0-----0-----0-----0-----0-------------------------------------------------|
G|---0-----0-----0-----0-----0-----0-------0-----0-----0-----0-----0-----0-----0-----0-|
D|-5-----5-----4-----4-----2-----2-------2-----2-----2-----2-----2-----2-----2-----2---|
A|-------------------------------------3-----3-----3-----3-----3-----3-----3-----3-----|
E|-------------------------------------------------------------------------------------|

        Where  can         I            start


Chorus 1

E|---------------------------------------------------------------------------------------------------|
B|---------------------------------------------------------------------------------------------------|
G|-----0-----0-----0-----0-----0-----0-----0-----0-----0-----0-----0-----0-----0-----0-------0-----0-|
D|---2-----2-----2-----2-----2-----2-----2-----2-----2-----2-----2-----2-----2-----2-------2-----2---|
A|-3-----3-----3-----3-----3-----3-----3-----3-----2-----2-----2-----2-----2-----2-------2-----2-----|
E|---------------------------------------------------------------------------------------------------|

   Oh                                   to         drown                   in     your


E|---------------------------------------------------------------------------------------------------|
B|---------------------------------------------------------------------------------------------------|
G|-----0-----0-----0-----0-----0-----0-----0-----0-----0-----0-----0-----0-----0-----0-------0-----0-|
D|---2-----2-----2-----2-----2-----2-----2-----2-----2-----2-----2-----2-----2-----2-------2-----2---|
A|-3-----3-----3-----3-----3-----3-----3-----3-----2-----2-----2-----2-----2-----2-------2-----2-----|
E|---------------------------------------------------------------------------------------------------|

   mind                                 I          would,      I     know   I    would

E|---------------------------------------------------------------------------------------------------|
B|---------------------------------------------------------------------------------------------------|
G|-----0-----0-----0-----0-----0-----0-----0-----0-----0-----0-----0-----0-----0-----0-------0-----0-|
D|---2-----2-----2-----2-----2-----2-----2-----2-----2-----2-----2-----2-----2-----2-------2-----2---|
A|-3-----3-----3-----3-----3-----3-----3-----3-----2-----2-----2-----2-----2-----2-------2-----2-----|
E|---------------------------------------------------------------------------------------------------|

    And   suffocate                                                     in               
 your

E|---------------------------------------------------------------------------------------------------|
B|---------------------------------------------------------------------------------------------------|
G|-----0-----0-----0-----0-----0-----0-----0-----0-----0-----0-----0-----0-----0-----0-------0-----0-|
D|---2-----2-----2-----2-----2-----2-----2-----2-----2-----2-----2-----2-----2-----2-------2-----2---|
A|-3-----3-----3-----3-----3-----3-----3-----3-----2-----2-----2-----2-----2-----2-------2-----2-----|
E|---------------------------------------------------------------------------------------------------|

   smoke.                                    I'd   choke       on you      if I could

E|-------------------------------------------------|
B|-------------------------------------------------|
G|-----1-----1-----1-----1-----1-----1-----1-----1-|
D|---2-----2-----2-----2-----2-----2-----2-----2---|
A|-2-----2-----2-----2-----2-----2-----2-----2-----|
E|-------------------------------------------------|

   Maybe I will

E|--------------------------------------|
B|--------0--------0--------0--------0--|
G|-----0--------0--------0--------0-----|   X2
D|--5--------5--------5--------5--------|
A|--------------------------------------|
E|--------------------------------------|

                (break)


Verse 3

E|-------------------------------------------------------------------------------------------------|
B|-----0-----0-----0-----0-----0-----0-----0-----0-----0-----0-----0-----0-----0-----0-----0-----0-|
G|---0-----0-----0-----0-----0-----0-----0-----0-----0-----0-----0-----0-----0-----0-----0-----0---|
D|-5-----5-----4-----4-----2-----2-----2-----0-----2-----2-----0-----0-----2-----2-----2-----2-----|
A|-------------------------------------------------------------------------------------------------|
E|-------------------------------------------------------------------------------------------------|

         And   if    I'm   rough             Or    coarse      through to my edge

E|-------------------------------------------------------------------------------------------------|
B|-----0-----0-----0-----0-----0-----0-----0-----0-----0-----0-----0-----0-----0-----0-----0-----0-|
G|---0-----0-----0-----0-----0-----0-----0-----0-----0-----0-----0-----0-----0-----0-----0-----0---|
D|-5-----5-----4-----4-----2-----2-----2-----0-----2-----2-----0-----0-----2-----2-----2-----2-----|
A|-------------------------------------------------------------------------------------------------|
E|-------------------------------------------------------------------------------------------------|

         You can polish me for hours         but I'll always look best in your head


E|-------------------------------------------------------------------------------------------------|
B|-----0-----0-----0-----0-----0-----0-----0-----0-----0-----0-----0-----0-----0-----0-----0-----0-|
G|---0-----0-----0-----0-----0-----0-----0-----0-----0-----0-----0-----0-----0-----0-----0-----0---|
D|-5-----5-----4-----4-----2-----2-----2-----0-----2-----2-----1-----1-----2-----2-----2-----2-----|
A|-------------------------------------------------------------------------------------------------|
E|-------------------------------------------------------------------------------------------------|

         We    wished for  lakes             been kissed       by          suns


E|-------------------------------------------------------------------------------------|
B|-----0-----0-----0-----0-----0-----0-------------------------------------------------|
G|---0-----0-----0-----0-----0-----0-------0-----0-----0-----0-----0-----0-----0-----0-|
D|-5-----5-----4-----4-----2-----2-------2-----2-----2-----2-----2-----2-----2-----2---|
A|-------------------------------------3-----3-----3-----3-----3-----3-----3-----3-----|
E|-------------------------------------------------------------------------------------|

         we    found       not         one,

E|-------------------------------------------------------------------------------------|
B|-----0-----0-----0-----0-----0-----0-------------------------------------------------|
G|---0-----0-----0-----0-----0-----0-------0-----0-----0-----0-----0-----0-----0-----0-|
D|-5-----5-----4-----4-----2-----2-------2-----2-----2-----2-----2-----2-----2-----2---|
A|-------------------------------------3-----3-----3-----3-----3-----3-----3-----3-----|
E|-------------------------------------------------------------------------------------|

   Hundreds               then        some


Chorus 2

E|---------------------------------------------------------------------------------------------------|
B|---------------------------------------------------------------------------------------------------|
G|-----0-----0-----0-----0-----0-----0-----0-----0-----0-----0-----0-----0-----0-----0-------0-----0-|
D|---2-----2-----2-----2-----2-----2-----2-----2-----2-----2-----2-----2-----2-----2-------2-----2---|
A|-3-----3-----3-----3-----3-----3-----3-----3-----2-----2-----2-----2-----2-----2-------2-----2-----|
E|---------------------------------------------------------------------------------------------------|

   Oh                                   I'll       drown                   in     your


E|---------------------------------------------------------------------------------------------------|
B|---------------------------------------------------------------------------------------------------|
G|-----0-----0-----0-----0-----0-----0-----0-----0-----0-----0-----0-----0-----0-----0-------0-----0-|
D|---2-----2-----2-----2-----2-----2-----2-----2-----2-----2-----2-----2-----2-----2-------2-----2---|
A|-3-----3-----3-----3-----3-----3-----3-----3-----2-----2-----2-----2-----2-----2-------2-----2-----|
E|---------------------------------------------------------------------------------------------------|

   mind                                 I          will,      I     know   I    will

E|---------------------------------------------------------------------------------------------------|
B|---------------------------------------------------------------------------------------------------|
G|-----0-----0-----0-----0-----0-----0-----0-----0-----0-----0-----0-----0-----0-----0-------0-----0-|
D|---2-----2-----2-----2-----2-----2-----2-----2-----2-----2-----2-----2-----2-----2-------2-----2---|
A|-3-----3-----3-----3-----3-----3-----3-----3-----2-----2-----2-----2-----2-----2-------2-----2-----|
E|---------------------------------------------------------------------------------------------------|

    And   suffocate                                                     in               
 your

E|---------------------------------------------------------------------------------------------------|
B|---------------------------------------------------------------------------------------------------|
G|-----0-----0-----0-----0-----0-----0-----0-----0-----0-----0-----0-----0-----0-----0-------0-----0-|
D|---2-----2-----2-----2-----2-----2-----2-----2-----2-----2-----2-----2-----2-----2-------2-----2---|
A|-3-----3-----3-----3-----3-----3-----3-----3-----2-----2-----2-----2-----2-----2-------2-----2-----|
E|---------------------------------------------------------------------------------------------------|

   smoke.                                    Die,   stuffing my lungs with their fill

E|-------------------------------------------------|
B|-------------------------------------------------|
G|-----1-----1-----1-----1-----1-----1-----1-----1-|
D|---2-----2-----2-----2-----2-----2-----2-----2---|
A|-2-----2-----2-----2-----2-----2-----2-----2-----|
E|-------------------------------------------------|


Outro

E|-------------------------------------------------------------------------------------------------|
B|-----0-----0-----0-----0-----0-----0-----0-----0-----0-----0-----0-----0-----0-----0-----0-----0-|
G|---0-----0-----0-----0-----0-----0-----0-----0-----0-----0-----0-----0-----0-----0-----0-----0---|
D|-5-----5-----4-----4-----2-----2-----2-----0-----2-----2-----0-----0-----2-----2-----2-----2-----|  X2
A|-------------------------------------------------------------------------------------------------|
E|-------------------------------------------------------------------------------------------------|
Добавлено: 07.12.2015
Вам также может быть интересно:
Другие материалы по этой песне:
  • Аккорды и текст

Страница создана 07.12.2015
http://primanota.ru/marika-hackman/drown-chords.htm
Привет, Гость.
Предлагаем пройти революционный курс по гитаре.
Подарок от PrimaNota.Ru, забирай!