PrimaNota.ru - самый крупный в мире бесплатный архив песенных текстов, аккордов, табулатур и нот


Marika Hackman - Claudes Girl - таба, видео

Регистрация Запомнить меня
Войти через:  Facebook Google Twitter Vk Yandex Mail.ru

Marika Hackman - Claudes Girl - таба, видео

Печатать
Просмотров: 142
Уроки эстрадного вокала в Санкт-Петербурге
Tablature: Claude's Girl - Marika Hackman

Capo on 5


Intro
e|--------------------------------------------------------------------------------|
B|----1--1------3--3------1--1------1--1------5--5------3--3------1--1------1--0--|
G|---------2---------2---------2---------2---------4*--------2---------2---------2|
D|----2--2------3--3------2--2------2--2------5--5------3--3------2--2------2--2--|
A|-0---------0---------0---------0---------0---------0---------0---------0--------|
E|--------------------------------------------------------------------------------|

1st Verse
e|--------------------------------------------------------------------------------|
B|----1--1------3--3------1--1------1--1------1--1------1--0----------------------|
G|---------2---------2---------2---------2---------2---------2*---1--1------1--1--|
D|----2--2------3--3------2--2------2--2------2--2------2--2-----------2---------2|
A|-0---------0---------0---------0--------------------------------2--2------2--2--|
E|-----------------------------------------1---------1---------0---------0--------|
  Turn off my mind, I beg you. It's buzzing like the Devil's bow.

e|--------------------------------------------------------------------------------|
B|----1--1------3--3------1--1------1--1--------------------------1--1------1--0--|
G|---------2---------2---------2---------2*---1--1------1--1-----------2---------2|
D|----2--2------3--3------2--2------2--2-----------2---------2----2--2------2--2--|
A|-0---------0---------0---------0------------2--2------2--2---0---------0--------|
E|-----------------------------------------0---------0----------------------------|
  Pulling a soft virgin string. A terrible shriek from below.

2nd Verse
e|--------------------------------------------------------------------------------|
B|----1--1------3--3------1--1------1--1----------------0--0----------------------|
G|---------2---------2---------2---------2----2--2----------------1--1------1--1--|
D|----2--2------3--3------2--2------2--2-----------3----0--0-0*--------2---------2|
A|-0---------0---------0---------0------------3--3----------------2--2------2--2--|
E|-----------------------------------------1---------3---------0---------0--------|
  A pure heart been bound by nickel. But not bent beneath the coil.

e|--------------------------------------------1--1------1--1------1--1------1--1--|
B|----1--1------3--3------1--1------2--2-----------3---------3---------3---------3|
G|---------2---------3---------2---------0----2--2------2--2------2--2------2--2--|
D|----2--2------0--0------2--2------2--2---0---------0---------0---------0--------|
A|-0---------1---------0---------1------------------------------------------------|
E|--------------------------------------------------------------------------------|
  If you play her right, she'll sing though the night. With the whispering wheat in the fields.

e|--------------------------------------------------------------------------------|
B|----1--1------1--1------1--1------1--1------1--1------1--1------1--1------1--1--|
G|---------2---------2---------2---------2---------2---------2---------2---------2|
D|----2--2------2--2------2--2------2--2------2--2------2--2------2--2------2--2--|
A|-0---------0---------0----------------------------------------------------------|
E|-------------------------------3---------2---------2---------2---------2--------|
  Oehoehoehoeeee...

e|--------------------------------------------------------------------------------|
B|----1--1------1--1------1--1------1--1------1--1------1--1------1--1------1--1--|
G|---------2---------2---------2---------2---------2---------2---------2---------2|
D|----2--2------2--2------2--2------2--2------2--2------2--2------2--2------2--2--|
A|-0---------0---------0----------------------------------------------------------|
E|-------------------------------3---------2---------2---------2---------2--------|
  Oehoehoehoeeee...

e|--------------------------------------------------------------------------------|
B|----1--1------1--1-0------------------------------------------------------------|
G|---------2-----------1--1--1----------------------------------------------------|
D|----3--3------3--3-----------2--------------------------------------------------|
A|------------------------2--2----------------------------------------------------|
E|-1---------1---------0---------0------------------------------------------------|
  ...

3rd Verse
e|--------------------------------------------------------------------------------|
B|----1--1------3--3------1--1------1--1------1--1------1--0----------------------|
G|---------2---------2---------2---------2---------2---------2*---1--1------1--1--|
D|----2--2------3--3------2--2------2--2------2--2------2--2-----------2---------2|
A|-0---------0---------0---------0--------------------------------2--2------2--2--|
E|-----------------------------------------1---------1---------0---------0--------|
  The flies on my walls, they're silent. But the swarm in my head is a hell.

e|--------------------------------------------------------------------------------|
B|----1--1------3--3------1--1------1--1--------------------------1--1------1--0--|
G|---------2---------2---------2---------2*---1--1------1--1-----------2---------2|
D|----2--2------3--3------2--2------2--2-----------2---------2----2--2------2--2--|
A|-0---------0---------0---------0------------2--2------2--2---0---------0--------|
E|-----------------------------------------0---------0----------------------------|
  So I'll try to play you correctly. For a toll of your deep slumber bell.

4th Verse
e|--------------------------------------------------------------------------------|
B|----1--1------3--3------1--1------1--1----------------0--0----------------------|
G|---------2---------2---------2---------2----2--2----------------1--1------1--1--|
D|----2--2------3--3------2--2------2--2-----------3----0--0-0*--------2---------2|
A|-0---------0---------0---------0------------3--3----------------2--2------2--2--|
E|-----------------------------------------1---------3---------0---------0--------|
  My fingers are wretched and calloused. Soon daybreak will creep up my stair.

e|--------------------------------------------1--1------1--1------1--1------1--1-0|
B|----1--1------3--3------1--1------2--2-----------3---------3---------3----------|
G|---------2---------3---------2---------0----2--2------2--2------2--2------2--2--|
D|----2--2------0--0------2--2------2--2---0---------0---------0---------0--------|
A|-0---------1---------0---------1------------------------------------------------|
E|--------------------------------------------------------------------------------|
  Now I've not got long to summon the song. Of the girl with the flaxen hair.

e|--------------------------------------------------------------------------------|
B|----1--1------1--1------1--1------1--1------1--1------1--1------1--1------1--1--|
G|---------2---------2---------2---------2---------2---------2---------2---------2|
D|----2--2------2--2------2--2------2--2------2--2------2--2------2--2------2--2--|
A|-0---------0---------0----------------------------------------------------------|
E|-------------------------------3---------2---------2---------2---------2--------|
  Oehoehoehoeeee...

e|--------------------------------------------------------------------------------|
B|----1--1------1--1------1--1------1--1------1--1------1--1------1--1------1--1--|
G|---------2---------2---------2---------2---------2---------2---------2---------2|
D|----2--2------2--2------2--2------2--2------2--2------2--2------2--2------2--2--|
A|-0---------0---------0----------------------------------------------------------|
E|-------------------------------3---------2---------2---------2---------2--------|
  Oehoehoehoeeee...


e|--------------------------------------------------------------------------------|
B|----1--1------1--1------1--1------1--1------1--1------1--1------1--1------1--1--|
G|---------2---------2---------2---------2---------2---------2---------2---------2|
D|----2--2------2--2------2--2------2--2------2--2------2--2------2--2------2--2--|
A|-0---------0---------0----------------------------------------------------------|
E|-------------------------------3---------2---------2---------1---------1--------|
  Oehoehoehoehoeeee......

End
 Option1    Option 2
e|-----     -----------0----------------------------------------------------------|
B|-----     ---------0------------------------------------------------------------|
G|-----     -------1--------------------------------------------------------------|
D|-----     -----2----------------------------------------------------------------|
A|-----     ---2------------------------------------------------------------------|
E|-1---     -0--------------------------------------------------------------------|

Radio edit ends with 1 on E, but during the live versions she tends to use the second option.

(hint: For most of the notes she hits on the first and second fret of the 'E'-string, she uses her thumb.)

* these are the notes that I find a bit doubtful(she tends to put some variations here and there)
Добавлено: 07.12.2015
Другие материалы по этой песне:
  • Аккорды и текст

Страница создана 07.12.2015
http://primanota.ru/marika-hackman/claudes-girl-chords.htm
Привет, Гость.
Предлагаем пройти революционный курс по гитаре.
Подарок от PrimaNota.Ru, забирай!