PrimaNota.ru - самый крупный в мире бесплатный архив песенных текстов, аккордов, табулатур и нот


Marie Miller - Silent Night - таба, видео

Регистрация Запомнить меня
Войти через:  Facebook Google Twitter Vk Yandex Mail.ru

Marie Miller - Silent Night - таба, видео

Печатать
Просмотров: 118
Уроки эстрадного вокала в Санкт-Петербурге
-----------------------------------------------------------------------
                             SILENT NIGHT - Marie Miller
-----------------------------------------------------------------------
Tabbed by: Jacob Belcik
E-mail: jbelcik24@hotmail.com

Capo 5
Standard Tuning
************************************
| p   pull-off
************************************

                   Am               
e|---------------------------------0-------|
B|-1p0-------------------1-----------1-----|
G|-----2p0-------------2---2-----2---------|
D|---------2p0-------2---------2-----------|
A|-------------3p0-0---------0---------0---|
E|-----------------------------------------|

e|------------|
B|-----1------|
G|---2---2----|    
D|-2----------|  x5
A|---------0--|
E|------------|  
Добавлено: 24.06.2015
Другие материалы по этой песне:
  • Аккорды и текст

Страница создана 24.06.2015
http://primanota.ru/marie-miller/silent-night-chords.htm
Привет, Гость.
Предлагаем пройти революционный курс по гитаре.
Подарок от PrimaNota.Ru, забирай!