PrimaNota.ru - самый крупный в мире бесплатный архив песенных текстов, аккордов, табулатур и нот


Marianas Trench - September - текст песни, таба, видео

Регистрация Запомнить меня
Войти через:  Facebook Google Twitter Vk Yandex Mail.ru

Marianas Trench - September - текст песни, таба, видео

Печатать
Просмотров: 160
----------------------------------------------------------------------------
                             SEPTEMBER - Marianas Trench
----------------------------------------------------------------------------
Tabbed by:TheMeese_2
Email:sum_41_freak_8@hotmail.com

Tuning:Drop Db(Db,Ab,Db,Gb,Bb,Eb)

Intro
eb|------------------------------------------------------------------------|
Bb|------------------------------------------------------------------------|
Gb|-7777777-10101010999----------------------------------------------------|
Db|-7777777-10101010999-8888777-888-888-8888777-888-888-888877-3-77\-------|
Ab|-5555555-8-8-8-8-888-8888777-888-888-8888777-888-888-888877-3-77\-------|
Db|---------------------8888777-888-888-8888777-888-888-888877-3-77\-------|

Verse (Part 1)
eb|------------------------------------------------------------------------|
Bb|------------------------------------------------------------------------|
Gb|-7777777----------------------------------------------------------------|
Db|-7777777-7777777-5555555-888-888-7777777-888-888-777777-3-77------------|
Ab|-5555555-7777777-5555555-888-888-7777777-888-888-777777-3-77------------|
Db|---------7777777-5555555-888-888-7777777-888-888-777777-3-77------------|

Verse (Part 2, after part 1 is played once)
eb|---------333-555---------333-555---------333-555------------------------|
Bb|-----666-------------666-------------666-------------66-----------------|
Gb|-777-------------777-------------777-------------777--------------------|
Db|--------------------------------------------------------3-77------------|
Ab|--------------------------------------------------------3-77------------|
Db|--------------------------------------------------------3-77------------|

Pre-Chorus
eb|------------------------------------------------------------------------|
Bb|------------------------------------------------------------------------|
Gb|------7---------777710101010999912121212--------------------------------|
Db|-3-77-7-77-3-77-777710101010999912121212--------------------------------|
Ab|-3-77-5-77-3-77-5555-8-8-8-8777710101010--------------------------------|
Db|-3-77---77-3-77---------------------------------------------------------|

Chorus
eb|----------------------------------------------------------------------|
Bb|----------------------------------------------------------------------|
Gb|--------77-------------55-----------77-----55-------------------------|
Db|-33-xxx-77-xx-x-77-xxx-55-55-33-xxx-77-xxx-55-xxx-55-88\--------------|
Ab|-33-xxx-55-xx-x-77-xxx-33-55-33-xxx-55-xxx-33-xxx-55-88\--------------|
Db|-33-xxx----xx-x-77-xxx----55-33-xxx----xxx----xxx-55-88\--------------|x2

Post-Chorus 1
eb|-------10--10---------10--10------------------------------------------|
Bb|----------------------------------------------------------------------|
Gb|----------------------------------------------------------------------|
Db|----------------------------------------------------------------------|
Ab|-101210--12--12-101210--12--12----------------------------------------|
Db|----------------------------------------------------------------------|x3

Last time through, end on this 
eb|------10--10------------------------------------------------------------|
Bb|------------------------------------------------------------------------|
Gb|-----------------------------10b----------------------------------------|
Db|---------------------10--1012---12\-------------------------------------|
Ab|-101210--12--12-101210--12----------------------------------------------|
Db|------------------------------------------------------------------------|

Pre-Chorus
eb|------------------------------------------------------------------------|
Bb|------------------------------------------------------------------------|
Gb|------7---------777710101010999912121212--------------------------------|
Db|-3-77-7-77-3-77-777710101010999912121212--------------------------------|
Ab|-3-77-5-77-3-77-5555-8-8-8-8777710101010--------------------------------|
Db|-3-77---77-3-77---------------------------------------------------------|

Chorus
eb|----------------------------------------------------------------------|
Bb|----------------------------------------------------------------------|
Gb|--------77-------------55-----------77-----55-----------(7\)----------|
Db|-33-xxx-77-xx-x-77-xxx-55-55-33-xxx-77-xxx-55-xxx-55-88-(7\)----------|
Ab|-33-xxx-55-xx-x-77-xxx-33-55-33-xxx-55-xxx-33-xxx-55-88-(5\)----------|
Db|-33-xxx----xx-x-77-xxx----55-33-xxx----xxx----xxx-55-88---------------|x2
Only play () on last time

Post-Chorus 2 (Part 1)
eb|------------------------------------------------------------------------|
Bb|------------------------------------------------------------------------|
Gb|-10101010101010101010101010101010---------------------------------------|
Db|-10101010101010101010101010101010---------------------------------------|
Ab|--8-8-8-8-8-8-8-8-8-8-8-8-8-8-8-8---------------------------------------|
Db|------------------------------------------------------------------------|

Post-Chorus 2(Part 2)
eb|----------------------------------------------------------------------|
Bb|----------------------------------------------------------------------|
Gb|---5-7---5-7---7------------------------------------------------------|
Db|-3-5-7-3-5-7-3-7-7-5-414-(3)------------------------------------------|
Ab|-3-3-5-3-3-5-3-5-7-5-414-(3)------------------------------------------|
Db|-3-----3-----3---7-5-414-(3)------------------------------------------|x3
Only play () on last time

Chorus
eb|----------------------------------------------------------------------|
Bb|----------------------------------------------------------------------|
Gb|----[----77-----]--------55-----------77-----55-----------(7\)--------|
Db|-33-[xxx-77-xx-x]-77-xxx-55-55-33-xxx-77-xxx-55-xxx-55-88-(7\)--------|
Ab|-33-[xxx-55-xx-x]-77-xxx-33-55-33-xxx-55-xxx-33-xxx-55-88-(5\)--------|
Db|-33-[xxx----xx-x]-77-xxx----55-33-xxx----xxx----xxx-55-88-------------|x2
Only play () on last time, Don't play [] on 1st time, theres a pause instead

Ending
eb|------------------------------------------------------------------------|
Bb|------------------------------------------------------------------------|
Gb|---5-7------------------------------------------------------------------|
Db|-3-5-7-7-414-3----------------------------------------------------------|
Ab|-3-3-5-7-414-3----------------------------------------------------------|
Db|-3-----7-414-3----------------------------------------------------------|

| /  slide up
| \  slide down
| h  hammer-on
| p  pull-off
| ~  vibrato
| +  harmonic
| x  Mute note
=====================================================================
Добавлено: 16.07.2012
Другие материалы по этой песне:
  • Аккорды и текст

Страница создана 01.03.2012
http://primanota.ru/marianas-trench/september-chords.htm
Привет, Гость.
Предлагаем пройти революционный курс по гитаре.
Подарок от PrimaNota.Ru, забирай!