PrimaNota.ru - самый крупный в мире бесплатный архив песенных текстов, аккордов, табулатур и нот


Margot & The Nuclear So And So's - Your Sisters House - таба, видео

Регистрация Запомнить меня
Войти через:  Facebook Google Twitter Vk Yandex Mail.ru

Margot & The Nuclear So And So's - Your Sisters House - таба, видео

Печатать
Просмотров: 66
Margot & the Nuclear So & So's
Your Sister's House
Can be played in Standard Tuning, Capo2 and Capo3
Tabbed by Mike Birkey

VERSE
e|--------------------------------------------0------|
B|------0-----------0-----------0-----------0---0----|
G|----1---1---1---1---1---1---1---1---1---1----------|
D|--2-------2---1-------1---2-------2---1------------|
A|---------------------------------------------------|
E|---------------------------------------------------|

e|---------------------------------------------------|
B|------0-----------0-----------0-----------0--------|
G|--------1---1-------1---1-------1---1-------1---1--|
D|----1-----1-----1-----1-----1-----1-----1-----1----|
A|--2-----------2-----------0-----------0------------|
E|---------------------------------------------------|

PRE-CHORUS
e|------4--------------------------------------------|
B|--5-----5-------7---------2-----2s4-2-0------------|
G|------------8-----8---2-----2-------------X2-------|
D|----6-----6---9-----9---2-----2--------------------|
A|--4-------------------0----------------------------|
E|------------7--------------------------------------|

CHORUS
e|---------------------------------------------------|
B|---------------------------------------------------|
G|--1---1-----2-----2---4---4-----6-----6-----X2-----|
D|--------2-------4-----------6-------7--------------|
A|----2-----2---4-----4---6-----6---7-----7----------|
E|--0---------2---------4---------5------------------|

e|---------------------------------------------------|
B|---------------------------------------------------|
G|--2-----2---4---4-----6-----6---6-----6------------|
D|------4-----------6-------7---------7--------------|
A|----4-----4---6-----6---7-----7---7-----7----------|
E|--2---------4---------5---------5------------------|

e|---------------------------------------------------|
B|---------------------------------------------------|
G|--2-----2---4---4---------6---------8--------------|
D|------4-----------6---------7---------9------------|
A|----4-----4---6-----6---7-----7---9-----9----------|
E|--2---------4---------5---------7------------------|
Добавлено: 05.10.2013
Другие материалы по этой песне:
  • Аккорды и текст

Страница создана 05.10.2013
http://primanota.ru/margot-and-the-nuclear-so-and-sos/your-sisters-house-chords.htm
Привет, Гость.
Предлагаем пройти революционный курс по гитаре.
Подарок от PrimaNota.Ru, забирай!