PrimaNota.ru - самый крупный в мире бесплатный архив песенных текстов, аккордов, табулатур и нот


Margot & The Nuclear So And So's - Prozac Rock - таба, видео

Регистрация Запомнить меня
Войти через:  Facebook Google Twitter Vk Yandex Mail.ru

Margot & The Nuclear So And So's - Prozac Rock - таба, видео

Печатать
Просмотров: 78
Авторы: Richard Edwards

Margot & the Nuclear So & So's
Prozac Rock
Standard Tuning
Submitted by Mike Birkey

e|----------2---2-3-3---|
B|--7-7---2-2---2-3-3---|
G|--7-7---2-2---2-4-3---|
D|--------2-4---4-5-5---|
A|--x-x-2---4-2-4-5-5---|
E|--5-7-3---2-3-2-3-3---|

e|--5-5-5----------|
B|--5-6-5----7-7---|
G|--5-5-6----7-7---|
D|--7-7-7—x2-------|
A|--7-7-7----x-x---|
E|--5-5-5----5-7---|

e|--2---2-----2-----2---2-3-3-------|
B|--3---3---2-3-2---3-2-2-3-3-7-7---|
G|--4---4---2-2-2---2-2-2-4-3-7-7---|
D|--4---4---2---2-----2-4-5-5-------|
A|--2-2-2-2-------2-----4-5-5-x-x---|
Добавлено: 19.03.2012
Другие материалы по этой песне:
  • Аккорды и текст

Страница создана 19.03.2012
http://primanota.ru/margot-and-the-nuclear-so-and-sos/prozac-rock-chords.htm
Привет, Гость.
Предлагаем пройти революционный курс по гитаре.
Подарок от PrimaNota.Ru, забирай!