PrimaNota.ru - самый крупный в мире бесплатный архив песенных текстов, аккордов, табулатур и нот


Margot & The Nuclear So And So's - Flying Saucer Blues - аккорды и текст, видео

Регистрация Запомнить меня
Войти через:  Facebook Google Twitter Vk Yandex Mail.ru

Margot & The Nuclear So And So's - Flying Saucer Blues - аккорды и текст, видео

Печатать
Просмотров: 82
Flying Saucer Blues
Margot & The Nuclear So And So's
Flying Saucer Blues - Margot and the Nuclear So and So's
-----------------------------------------------------------------
Tabbed by: Peter V
Email: peterkvardy@gmail.com

Tuning: E standard, Capo on 2

Hey, I thought I'd put this up since there are no chords, and it's one of my favourite 
Margot songs.

RIFF 1

H = hammer-on

e|---------------------------------------------------------------|
B|---------------------------------------------------------------|
G|-----0---------------------------------------------------------|
D|-0h2---2-------------------------------------------------------|
A|---------------------------------------------------------------|
E|---------------------------------------------------------------|

RIFF 2

e|---------------------------------------------------------------|
B|---------------------------------------------------------------|
G|---------------------------------------------------------------|
D|----------0----------------------------------------------------|
A|----0-2-3------------------------------------------------------|
E|--3------------------------------------------------------------|

(Riff 1)
C   Am   Em   G (Riff 1)
Am   C   G (Riff 1)
Flying saucer blues
Nothing changed
Things still hurt
Flying saucer blues

Am   C   G (Riff 2)  D
On my mind
I want you bad
I want you bad
I want you bad
I want you bad

(Riff 1)
C   Am   Em   G (riff 1)
Am   C   G (Riff 1)
Flying saucer blues
Oh and nothing changed
You still left
Flying saucer blues

Am   C   G (Riff 2)  D
So much love
Ooo, I want you bad
I want you bad

Am   C   G   Em
Cadd9   Am   G
Till the day I wanna stay
Closer to you love
Closer to you love
Until the day I wanna stay
Closer to you love
Closer to you love

(Riff 1)
C   Am (Riff 1)
Flying saucer blues
Flying saucer blues
Flying saucer blues

Am   C   G (Riff 2)  D
Too much love
Ooo, I want you bad
I want you bad
I want you bad

Am   C   G
I want you badly

End on G


Thanks! This was my first chord/tab thing so please leave any criticisms in the comments 
or changes that need to be made. Hope you like it!
Добавлено: 12.07.2013
Другие материалы по этой песне:
  • Аккорды и текст

Страница создана 12.07.2013
http://primanota.ru/margot-and-the-nuclear-so-and-sos/flying-saucer-blues-chords.htm
Привет, Гость.
Предлагаем пройти революционный курс по гитаре.
Подарок от PrimaNota.Ru, забирай!