PrimaNota.ru - самый крупный в мире бесплатный архив песенных текстов, аккордов, табулатур и нот


Margot & The Nuclear So And So's - Claws Off - аккорды и текст, видео

Регистрация Запомнить меня
Войти через:  Facebook Google Twitter Vk Yandex Mail.ru

Margot & The Nuclear So And So's - Claws Off - аккорды и текст, видео

Печатать
Просмотров: 80
Авторы: Richard Edwards

Claws Off
Margot & The Nuclear So And So's
Tabbed by: Jon Green
This is my interpretation of the song "Claws Off" by Margot and the Nuclear So and So's. 
It is off of their album "Buzzard." If you think there needs to be any adjustments 
send a message in the comments section of this tab. Ill make a correction.
Rate and comment please. 
     
Chords: 
      F     Am
e|----x-----x----------|
B|----1-----1----------|
G|----2-----2----------|
D|----3-----2----------|
A|----3-----0----------|
E|----x-----x----------|



Intro:  x2
F- Am - F - Am
e|-----------------------|
B|-----------------------|
G|-----------------------|
D|---/88---7~--/88--5~---|
A|---/88---7~--/88--5~---|
E|---/66---5~--/66--3~---|

Verse 1:
F                    Am
Superstitious grave robber

F                Am          
Keep your claws off me and mine
e|-------------------------|
B|-------------------------|
G|-------------------------|
D|---/88---7~---/88---5~---|
A|---/88---7~---/88---5~---|
E|---/66---5~---/66---3~---|

F                     Am
Lead the part, make 'em sick

F    Am
Set fire to their eyes
e|-------------------------|
B|-------------------------|
G|-------------------------|
D|---/88---7~---/88---5~---|
A|---/88---7~---/88---5~---|
E|---/66---5~---/66---3~---|

Chorus:
e|-----------------------|
B|-----------------------|
G|-55555555--------------|
D|-55555555----88888-----|
A|-33333333----88888-----|
E|-------------66666-----|

If you wanna go... Get lost

F-Am-F-Am

e|---------------------------|
B|---------------------------|
G|---------------------------|
D|--5555555-----8888888888---|
A|--5555555-----8888888888---|
E|--3333333-----6666666666---|

If you wanna stay... Shut up

Repeat Intro 1x

Verse 2:
F                    Am
Superstitious rage monger
F                 Am
Keep your hands out of my tea

e|-------------------------|
B|-------------------------|
G|-------------------------|
D|---/88---7~---/88---5~---|
A|---/88---7~---/88---5~---|
E|---/66---5~---/66---3~---|

F                       Am
Tell me you love me and make it sweet
F       Am
Get down on your knees

e|-------------------------|
B|-------------------------|
G|-------------------------|
D|---/88---7~---/88---5~---|
A|---/88---7~---/88---5~---|
E|---/66---5~---/66---3~---|

Chorus:
e|-----------------------|
B|-----------------------|
G|-55555555--------------|
D|-55555555----88888-----|
A|-33333333----88888-----|
E|-------------66666-----|
If you wanna go... Get lost

F-Am-F-Am

e|---------------------------|
B|---------------------------|
G|---------------------------|
D|--5555555-----8888888888---|
A|--5555555-----8888888888---|
E|--3333333-----6666666666---|

If you wanna stay... Shut up

Interlude (Slide Guitar solo)

Bridge:
e|----------------x---------|
B|----------------x---------|
G|-5~-------------x---------|
D|-5~----8~-------x---------|
A|-3~----8~-------x---------|
E|-------6~-------x---------|

I don't wanna say...Good luck

e|------------------------------------------|
B|-66666666-----555555------------666666----|
G|-77777777-----555555------------777777----|
D|-77777777-----777777-x3---------777777----|
A|-55555555-----777777------------555555----|
E|-55555555-----555555------------555555----|


F(Muted)       Am(Muted)
Superstitious grave robber
F(Muted)   Am(Muted)
Keep your claws off me and...

e|---------------------xxxxx------|
B|---------------------xxxxx------|
G|---------------------xxxxx------|
D|-333-/555-/777-/888--xxxxx------|
A|-333-/555-/777-/888--xxxxx------|
E|-111-/333-/555-/666--xxxxx------|

I'm not gonna say (x3)

e|----------------------------------------------------------------|
B|----------------------------------------------------------------|
G|--55555555----------------------77777777------------------------|
D|--55555555--88888888--77777777--77777777--55555555--88888888----|
A|--33333333--88888888--77777777--55555555--55555555--88888888----|
E|------------66666666--55555555------------33333333--66666666----|
 
Good luck
e|---------------------xxxxx----------|
B|---------------------xxxxx----------|
G|---------------------xxxxx----------|
D|-333-/555-/777-/888--xxxxx----------|
A|-333-/555-/777-/888--xxxxx----------|
E|-111-/333-/555-/666--xxxxx----------|

What I wanna say (x3)
e|------------------------------------------------------------------|
B|------------------------------------------------------------------|
G|--55555555------------55555555------------------------------------|
D|--55555555--88888888--55555555--88888888--55555555---88888888-----|
A|--33333333--88888888--33333333--88888888--55555555---88888888-----|
E|------------66666666------------66666666--33333333---66666666-----|

Is get fucked...
Добавлено: 22.07.2012
Другие материалы по этой песне:
  • Аккорды и текст

Страница создана 22.07.2012
http://primanota.ru/margot-and-the-nuclear-so-and-sos/claws-off-chords.htm
Привет, Гость.
Предлагаем пройти революционный курс по гитаре.
Подарок от PrimaNota.Ru, забирай!