PrimaNota.ru - самый крупный в мире бесплатный архив песенных текстов, аккордов, табулатур и нот


Margaret Becker - Horses - таба, видео

Регистрация Запомнить меня
Войти через:  Facebook Google Twitter Vk Yandex Mail.ru

Margaret Becker - Horses - таба, видео

Печатать
Просмотров: 84
		   "Horses"
Margaret Becker
Written by Margaret Becker,Tedd T, Brent Milligan, Dave Lichens
From the CD "Falling Forward"
Label: Sparrow

Tabbed by Brett Hall       amploud@aol.com



     Hey people! I don't have this whole song figured out yet.  I am still
working on it, but I thought I'd just post what I have. This way, if someone
else figures it out they can post what I don't have done yet!  I have the
intro (main riff) and a chord change that sounds pretty close to the verses. 


intro (main riff):

e-----------------------------------------------------------------------------------------------
B-----------------------------------------------------------------------------------------------
G----------------------0-----------------------------------------------------------------------
D------2------2---------------2---3---2---------------2----------2---------0-----2-2-----
A---3-----3------3---------3----------------------3---------3---------3--------3----------
E---------------------------------------------------------------------------------------------

Now for the verse chord change:
This is the riff I play. It is not perfect, but it's close enough to play with
the CD.

e----------------------------------------------------------------------------
B---1-----1------1--------1----1-----1-----1----------------------------
G---0-----0------0--------0----0-----0-----0----------------------------
D---2-----2------0--------3----3-----3-----0----------------------------
A---3-----3------3--------3----3-----3-----3----------------------------
E---------------------------------------------------------------------------


Sorry! That's all I have at the moment! I'll post the rest if I figure it out!
Questions or requests can be sent to me at:          amploud@aol.com
     
Добавлено: 25.10.2013
Вам также может быть интересно:
Другие материалы по этой песне:
  • Аккорды и текст

Страница создана 25.10.2013
http://primanota.ru/margaret-becker/horses-chords.htm
Привет, Гость.
Предлагаем пройти революционный курс по гитаре.
Подарок от PrimaNota.Ru, забирай!