PrimaNota.ru - самый крупный в мире бесплатный архив песенных текстов, аккордов, табулатур и нот


Marduk - Throne Of Rats - текст песни, таба, видео

Регистрация Запомнить меня
Войти через:  Facebook Google Twitter Vk Yandex Mail.ru

Marduk - Throne Of Rats - текст песни, таба, видео

Печатать
Просмотров: 135
Уроки эстрадного вокала в Санкт-Петербурге
Band:  Marduk
Album: Plague Angel
Song:  Throne of Rats

Copyright (c)  Blooddawn/Regain Records 2004
Version 1.0 - June 2007

Transcribed By: RedScorpion
Email:          beardedwanker@hotmail.com


.  - palm mute           /  - slide up to
\  - slide down to       ~  - vibrato
h  - hammer on           b  - Bend
p  - pull off            Suffixes for bend
t  - tap                 f  - full bend    h - half bend
ph - pinched harmonic    q  - quarter bend t - tap bend
*  - see comment         ^  - Hold bend    r release bend
x  - Stuccatto           ~  - vibrato bend
,  - slight palm mute    () - ghost note, sustained note
"  - tremolo note        <> - Trill

Tuning E A D G B E



Riff A
You could play this one as powerchords, or with octaves, I dont know,
I think there is a variation throughout the song, but production isnt
really crisp lol

|------------------------------------------------------|
|------------------------------------------------------|
|o----------------------------------------------------o|
|o----------------------------------------------------o|
|-----7\5/7-7-7-7---7\5/8-8-8-8---7\5/7-7-7-7--7-6-3---|
|---0-------------0-------------0--------------5-4-1---|


Riff B

|-------------------------------------------------------------------|
|-------------------------------------------------------------------|
|o------------------------------------------------------------------|
|o------------------------------------------------------------------|
|-------4-4---------------------4-4-----2-2-1-1---------4-4---------|
|---2-2-----2-2-3-3-0-0-3-3-2-2-----2-2---------3-3-2-2-----2-2-3-3-|

|-----------------------------------|
|-----------------------------------|
|----------------------------------o|
|---------------------4-4-3-3------o|
|-------------4-4-------------5-5---|
|-0-0-3-3-2-2-----2-2---------------|

Riff A repeat

Riff B repeat

Riff C

|---------------------------------------------------------------|
|---------------------------------------------------------------|
|o-------------------------------------------------------------o|
|o--6-6-6-6-6-6-6-6---------7-7-7-7-6-6-6-6-6-6-6-6---------7--o|
|---4-4-4-4-4-4-4-4-8-8-8-8-5-5-5-5-4-4-4-4-4-4-4-4-8-8-7-7-5---|
|-------------------6-6-6-6-------------------------6-6-5-5-----|


Riff D

|-------------------------------------------------------------------|
|-------------------------------------------------------------------|
|o------------------------------------------------------------------|
|o------------------------------------------------------------------|
|--2-2-1-1-----1-1---------2-2-1-1-----1-1-1-1-1-1--2-2-1-1-----1-1-|
|----------3-3-----3-3-2-2---------3-3----------------------3-3-----|


|------------------------------------|
|------------------------------------|
|-----------------------------------o|
|-----------------------------------o|
|----------2-2-1-1-------------------|
|--3-3-2-2---------2-2-3-3-3-3-3-3---|


Riff E

|-------------------------------------------------------------------|
|-------------------------------------------------------------------|
|o------4-4---------------------4-4-----2-2-1-1---------4-4---------|
|o--2-2-----2-2-3-3-0-0-3-3-2-2-----2-2---------3-3-2-2-----2-2-3-3-|
|-------------------------------------------------------------------|
|-------------------------------------------------------------------|


|-----------------------------------|----------------|
|-----------------------------------|----------------|
|---------5-5-4-4-2-2-1-1-2-2------o|----------------|
|-0-0-3-3---------------------3-3--o|---2--0--2--3---|
|-----------------------------------|----------------|
|-----------------------------------|----------------|

Riff B repeat

Riff A repeat

Riff C repeat

End on C#
Добавлено: 06.06.2012
Другие материалы по этой песне:

Страница создана 12.04.2012
http://primanota.ru/marduk/throne-of-rats-chords.htm
Привет, Гость.
Предлагаем пройти революционный курс по гитаре.
Подарок от PrimaNota.Ru, забирай!