PrimaNota.ru - самый крупный в мире бесплатный архив песенных текстов, аккордов, табулатур и нот


Marduk - Perish In Flames - текст песни, таба, видео

Регистрация Запомнить меня
Войти через:  Facebook Google Twitter Vk Yandex Mail.ru

Marduk - Perish In Flames - текст песни, таба, видео

Печатать
Просмотров: 133
Marduk - Perish in Flames from Plague Angel.

Here are all the riffs from the song.


Riff 1.a


e|------8----------------------------8------------------------|
b|------8----------------------------8------------------------|
g|------------------------------------------------------------|
d|---------------5----6----3------------------7----5------5-3-|
a|-2----------------------------2-----------------------------|
e|-0-------------3----4----1----0-------------5----3------3-1-|


Riff 1.b


e|------8----------------------------8------------------------|
b|------8----------------------------8------------------------|
g|------------------------------------------------------------|
d|---------------5----6----3------------------7----5------5-3-|
a|-2-------------5----6----3----2-------------7----5------5-3-|
e|-0-------------3----4----1----0-------------5----3------3-1-|


Riff 2


e|------------------------------------------------|
b|------------------------------------------------|
g|------------------------------------------------|
d|-------3-----2-----2p3h2p3--------3--2----------|
a|----3-----------2--------------3--------------3-|
e|-0--------------------------0--------------0--1-|


Riff 3


e|-------------------------------------------------|
b|-------------------------------------------------|
g|-10-10-10-9--9--9--7--7--7--5--5--5--7--7--10-10-|
d|-------------------------------------------------|
a|-8--8--8--7--7--7--5--5--5--3--3--3--5--5--8--8--|
e|-------------------------------------------------|


Riff 4


e|-----------------------------------------------|
b|-----------------------------------------------|
g|-----------------------------------------------|
d|-4----4--4--4--4--4--4--5--5--5--7--7--7--7/10-|
a|-2----2--2--2--2--2--2--3--3--3--5--5--5--7/10-|
e|-2----2--2--2--2--2--2--3--3--3--5--5--5--5/8--|


Riff 5.a


e|--------------------------------------------|
b|--------------------------------------------|
g|--------------------------------------------|
d|---------------------------------6----------|
a|------7/8\7--5--7---------7/8\7-----8--5--8-|
e|-0-------------------0----------------------|


Riff 5.b


e|------------------------------------------|
b|------------------------------------------|
g|------------------------------------------|
d|------------------------------------------|
a|------------/7---------------/11--------8-|
e|-0-----------------0----------------------|


Riff 6


e|-5----5--5------5---------------|
b|-5----5--5------5---------------|
g|-5----5--5------5---------------|
d|-7----7--7---3--7-----8---8---8-|
a|-7----7--7---3--7-----8---8---8-|
e|-5----5--5---1--5-----6---6---6-|


Riff 7


e|----------------------------------------------|
b|----------------------------------------------|
g|-9/10\9--9---------9/10-10-1010-10/13--13--13-|
d|----------------------------------------------|
a|-7/8-\7--7---------7/8--8--8-8--8-/11--11--11-|
e|------------0---------------------------------|


Riff 8


e|-5--5--5--5--5--5--5-----------5--5--5--5--5--5------------|
b|-5--5--5--5--5--5--5-----------5--5--5--5--5--5------------|
g|-5--5--5--5--5--5--5-----------5--5--5--5--5--5------------|
d|-7--7--7--7--7--7--7-----3-----7--7--7--7--7--7--8---8---8-|
a|-7--7--7--7--7--7--7-----3-----7--7--7--7--7--7--8---8---8-|
e|-5--5--5--5--5--5--5-----1-----5--5--5--5--5--5--6---6---6-|




| /  slide up
| \  slide down
| h  hammer on
| p  pull off
| b  bend
| r  release
| ~  vibrato
| +  harmonic
| .  palm mute
| <  volume swell

========================================================================
Добавлено: 26.02.2012
Другие материалы по этой песне:

Страница создана 26.02.2012
http://primanota.ru/marduk/perish-in-flames-chords.htm
Привет, Гость.
Предлагаем пройти революционный курс по гитаре.
Подарок от PrimaNota.Ru, забирай!