PrimaNota.ru - самый крупный в мире бесплатный архив песенных текстов, аккордов, табулатур и нот


Marduk - Levelling Dust - таба, видео

Регистрация Запомнить меня
Войти через:  Facebook Google Twitter Vk Yandex Mail.ru

Marduk - Levelling Dust - таба, видео

Печатать
Просмотров: 135
Band:  Marduk
Album: Rom 5.12
Song:  The Levelling Dust

Copyright (c)  Blooddawn 2007
Version 1.0 - April 2007

Transcribed By: RedScorpion
Email:          beardedwanker@hotmail.com


.  - palm mute           /  - slide up to
\  - slide down to       ~  - vibrato
h  - hammer on           b  - Bend
p  - pull off            Suffixes for bend
t  - tap                 f  - full bend    h - half bend
ph - pinched harmonic    q  - quarter bend t - tap bend
*  - see comment         ^  - Hold bend    r release bend
x  - Stuccatto           ~  - vibrato bend
,  - slight palm mute    () - ghost note, sustained note
"  - tremolo note        <> - Trill

Tuning E A D G B E


Riff A I

|------------------------------------------------------|
|------------------------------------------------------|
|o----------------------------------------------------o|
|o--9-9-10-10-9-9-7-7-7-6/7\6-------------------------o|
|---7-7-8--8--7-7-5-5-5-4/5\4--7-7-8-8-5-5-7-7-3-3-2---|
|------------------------------5-5-6-6-3-3-5-5-1-1-0---|


Riff A II

|------------------------------------------------------|
|------------------------------------------------------|
|o--9-9-10-10-9-9-7-7-7-6/7\6-------------------------o|
|o-----------------------------7-7-8-8-5-5-7-7-3-3-2--o|
|---7-7-8--8--7-7-5-5-5-4/5\4--------------------------|
|------------------------------5-5-6-6-3-3-5-5-1-1-0---|


Riff B

|----------------------------------------------------------|
|-----------8---------------9--------------8-(8)-----------|
|o--------9---9----------10---10---------9----9---10------o|
|o---------------------------------------------------11---o|
|------7-------------7----------------7--------------------|
|---0-------------0----------------0-----------------------|

Riff A I Repeat

Riff A II Repeat

Riff C

|-----------------------------------------------------|
|-----------------------------------------------------|
|o---------------------------------------------------o|
|o----9-9-12-12-12-12-9-9-13-13-10-10----------------o|
|---2---------------------------------11-11-----------|
|---0---------------------------------------4--4--1---|


|----------------------------------------------|
|----------------------------------------------|
|----------------------------------------------|
|---2--------(2)----------3-6-3-2--------(2)---|
|---2--------(2)----------3-6-3-2--------(2)---|
|---0--------(0)----------1-4-1-0--------(0)---|


Riff D

|----------------------------------------------------|
|----------------------------------------------------|
|o--------------------------------------------------o|
|o--3-6-3-------------------------------------------o|
|---3-6-3--2-2-2-2-2-2-2-2-2-2-2-2-2-2-2-2-2-2-2-2---|
|---1-4-1--0-0-0-0-0-0-0-0-0-0-0-0-0-0-0-0-0-0-0-0---|


Riff A I repeat

Riff A II repeat

Riff B repeat

Riff C repeat

Riff D repeat

Riff C repeat

THE END
Добавлено: 29.06.2012
Другие материалы по этой песне:

Страница создана 29.06.2012
http://primanota.ru/marduk/levelling-dust-chords.htm
Привет, Гость.
Предлагаем пройти революционный курс по гитаре.
Подарок от PrimaNota.Ru, забирай!