PrimaNota.ru - самый крупный в мире бесплатный архив песенных текстов, аккордов, табулатур и нот


Marduk - Blooddawn - текст песни, таба, видео

Регистрация Запомнить меня
Войти через:  Facebook Google Twitter Vk Yandex Mail.ru

Marduk - Blooddawn - текст песни, таба, видео

Печатать
Просмотров: 183
Marduk-Blooddawn
from the album Panzer Division Marduk
transcribed by Karl Westin
Send Questions and Comments to max_c84@hotmail.com

Riff A1:
  s    s
------------------
------------------
-6/8--6/8-9-9-9-8-
-6/8--6/8-9-9-9-8-
------------------
------------------
(play 2x, drums and bass enter the second time)

Riff A2:
  s    s
------------------
------------------
-6/8--6/8-9-9-9-8-
-6/8--6/8-9-9-9-8-
-4/6--4/6-7-7-7-6-
------------------
(play 4x)

Riff B:
-------------------------------------
-------------------------------------
-------------------------------------
-------------------------------------
-10-6-7-9-10-11-10-6-7-6-4-6-7-6-4-3-
-------------------------------------
(play 4x)
(play Riff A2 6x)
(play Riff B 4x)

Riff C:
-------------
-------------
-8--6-8-9--5-
-8--6-8-9--5-
-6--4-6-7--3-
-------------
(play 2x)

Riff D:
----------------------
----------------------
----------------------
-2--3-2--3-2--3-2-3-6-
-0--1-0--1-0--1-0-1-4-
----------------------
(play 4x)
(play Riff A1 2x)
(play Riff A2 6x)
(play Riff C 2x)

Riff E1:
(This was a bitch to hear, so I'm not shure it's right.)
----------------------------------
----------------------------------
----------------------------------
----------------------------------
----------------------------------
-5-3-6-3-5-3-5-6--5-3-6-3-5-6-5-3-
(play 2x)

Riff E2:
----------------------------------
----------------------------------
----------------------------------
----------------------------------
-3-1-4-1-3-1-3-4--3-1-4-1-3-4-3-1-
----------------------------------
(play 2x)
(play Riff C 2x)
(play Riff D 4x)
(play Riff A2 6x)
(play Riff B 4x)
(play Riff C 2x)
(play Riff D 6x)
Добавлено: 02.03.2012
Другие материалы по этой песне:

Страница создана 02.03.2012
http://primanota.ru/marduk/blooddawn-chords.htm
Привет, Гость.
Предлагаем пройти революционный курс по гитаре.
Подарок от PrimaNota.Ru, забирай!