PrimaNota.ru - самый крупный в мире бесплатный архив песенных текстов, аккордов, табулатур и нот


Marduk - Beyond The Grace Of God - текст песни, таба, видео

Регистрация Запомнить меня
Войти через:  Facebook Google Twitter Vk Yandex Mail.ru

Marduk - Beyond The Grace Of God - текст песни, таба, видео

Печатать
Просмотров: 114
Guitar Tab for "Beyond the Grace of God"  
(artist: Marduk; Album :Heaven Shall Burn...)
>From Demgoroth ( Demgoroth@hotmail.com )

		   
~ : let ring


|----------------------------------------------------------------------|
|----------------------------------------------------------------------|
|----------------------------------------------------------------------|
|----------------------------------------------------------------------|
|------888-101010-888-----888-101010-888-----7777777555555777888-------|
|--555----------------555----------------555---------------------------|



|----------------------------------------------------------------------|
|----------------------------------------------------------------------|
|------------8~~888999888--------------7777----------------------------|
|--99999999--666----------99999999-88885555----------------------------|
|--77777777---------------77777777-6666--------------------------------|
|----------------------------------------------------------------------|



|----------------------------------------------------------------------|
|----------------------------------------------------------------------|
|----------------------------------------------------------------------|
|----------1010101010101010666677776666--------------------------------|
|--77777777----------------------------8888888877778888----------------|
|----------------------------------------------------------------------|

riff a
Speed pick throughout. The blanks are there to make things easier to read.
|---------------------------------------------------------------------------------------------------------|
|---------------------------------------------------------------------------------------------------------|
|---------------------------------------------------------------------------------------------------------|
|---------------------------------------------------------------------------------------------------------|
|--/191919-191919-000-202020-000-191919-000-171717-000-151515-000-141414141414----------------------------|
|------------------------------------------------------------------------------131313131313-121212121212--|


					   speed pick
|------------------------------------------------|----------------------
|------------------------------------------------|----------------------
|---999999101010999777-------------10-9----------|----------------------
|---------------------101010999999-10-9----------|----------------------
|----------------------------------8--7----------|----------------------
|------------------------------------------------|----------------------

riff b
|------------------------------|----------------------------------------
|------------------------------|-----------------------------------------
|------------------------------|-----------------------------------------
|------4-----2---5--etc...-----|-----------------------------------------
|----4-4---2---5---------------|----------------------------------------
|--2~---2-0---3----------------|----------------------------------------


|-------------------------------------------------------------|---------
|-------------------------------------------------------------|---------
|--6666666667777777666666666666666665555555555----------------|----------
|--4444444445555555444444444444444443333333333777777777777----|---------
|---------------------------------------------555555555555----|---------
|-------------------------------------------------------------|---------


|---------------------------------------------------------------------------
|---------------------------------------------------------------------------
|----------------------------9999999----------------------------------------
|----1111111111111212121111117777777101010101010111111111111121212111111----
|----9-9-9-9-9-9-1010109-9-9--------8-8-8-8-8-8-9-9-9-9-9-9-1010109-9-9-----
|---------------------------------------------------------------------------


--------------------------------|--------------------------------------
--------------------------------|--------------------------------------
--------------------------------|--------------------------------------
--101010101010------------------|--------------------------------------
--8-8-8-8-8-8-121212121212------|--------------------------------------
--------------101010101010------|--------------------------------------



|----------------------------------------------------|
|----------------------------------------------------|
|-------------------4444444455555555444444446666666--|
|--444444455554444-----------------------------------|
|--222222233332222-----------------------------------|
|----------------------------------------------------|

same riff, in E (7nth position, same pattern)

then back to riffs a and b, fade out.
Добавлено: 25.02.2012
Другие материалы по этой песне:

Страница создана 25.02.2012
http://primanota.ru/marduk/beyond-the-grace-of-god-chords.htm
Привет, Гость.
Предлагаем пройти революционный курс по гитаре.
Подарок от PrimaNota.Ru, забирай!