PrimaNota.ru - самый крупный в мире бесплатный архив песенных текстов, аккордов, табулатур и нот


Marduk - 502 - текст песни, таба, видео

Регистрация Запомнить меня
Войти через:  Facebook Google Twitter Vk Yandex Mail.ru

Marduk - 502 - текст песни, таба, видео

Печатать
Просмотров: 121
                        M A R D U K  -  5 0 2
                    From the Album PANZER DIVISION
                   Copyright 1999 OSMOSE PRODUCTIONS

                        Version 1.0 - JUNE '02

Transcribed by: death8699

For Questions, Comments, Newest Version, or Corrections contact
 death8699: at ArchEnemies@aol.com

Check Out Death8699.com, With More Transcriptions On It:
 http://www.death8699.com

.  - palm mute                  /  - slide up to
\  - slide down to              ~  - vibrato
"  - tremelo picking           ( ) - ghost note
b  - bend                       h  - hammer-on
fb - full bend (1 step)         p  - pull-off
hb - half bend (1/2 step)       r  - release a bend
t  - tapping                    ah - artificial harmonic

Tune Gtr to E

--502--

[Riff A]
[----------------------|---------------------]
[----------------------|---------------------]
[*---------------------|--------------------*]GTR 1
[*-4"--3"----------3"--|-4"--3"----------3"-*] 
[--2"--1"--3"--2"--1"--|-2"--1"--3"--2"--1"--]
[----------1"--0"------|---------1"--0"------]

[----------------------|---------------------]
[----------------------|---------------------]
[*---------------------|--------------------*]GTR 2
[*-4"--3"----------3"--|-4"--3"----------3"-*] 
[--2"--1"--3"--2"--1"--|-2"--1"--3"--2"--1"--]
[----------1"--0"------|---------1"--0"------]


[Riff B]
[------------------------------|------------------------------]
[------------------------------|------------------------------]
[*-----------------------------|-----------------------------*]GTR 1
[*-----------------------------|-----------------------------*] 
[--3"----4"--2"--3"----4"--7"--|--3"----4"--2"--3"----4"--7"--]
[--1"----2"--0"--1"----2"--5"--|--1"----2"--0"--1"----2"--5"--]

[------------------------------|------------------------------]
[------------------------------|------------------------------]
[*-----------------------------|-----------------------------*]GTR 2
[*-----------------------------|-----------------------------*] 
[--3"----4"--2"--3"----4"--7"--|--3"----4"--2"--3"----4"--7"--]
[--1"----2"--0"--1"----2"--5"--|--1"----2"--0"--1"----2"--5"--]


[Riff C]
[------------------|-----------------]
[------------------|-----------------]
[*-----------------|----------------*]GTR 1
[*-----------------|----------------*] 
[--6"------4"--7"--|-6"------4"--7"--]
[--4"------2"--5"--|-4"------2"--5"--]

[------------------|-----------------]
[------------------|-----------------]
[*-----------------|----------------*]GTR 2
[*-----------------|----------------*] 
[--6"------4"--7"--|-6"------4"--7"--]
[--4"------2"--5"--|-4"------2"--5"--]


[Half-time]
[--------------------|--------------------]
[--------------------|--------------------]
[*-------------------|-------------------*]GTR 1
[*-------------------|-------------------*] 
[--3-(3)-----4---7---|-3-(3)------4"--7"--]
[--1-(1)-----2---5---|-1-(1)------2"--5"--]

[--------------------|--------------------]
[--------------------|--------------------]
[*-------------------|-------------------*]GTR 2
[*-------------------|-------------------*] 
[--3-(3)-----4---7---|-3-(3)------4"--7"--]
[--1-(1)-----2---5---|-1-(1)------2"--5"--]


[Riff D]
[----------------------|----------------------]
[----------------------|----------------------]
[*---------------------|---------------------*]GTR 1
[*---------------------|---------------------*] 
[--3"--------4"-2"-7"--|-3"---------4"--7"----]
[--1"--------2"-0--5"--|-1"---------2"--5"----]

[----------------------|----------------------]
[----------------------|----------------------]
[*---------------------|---------------------*]GTR 2
[*---------------------|---------------------*] 
[--3"--------4"-2"-7"--|-3"---------4"--7"----]
[--1"--------2"-0--5"--|-1"---------2"--5"----]


[Riff E]
[--------------------------------|-------------------------------]
[--------------------------------|-------------------------------]
[*-------------------------------|------------------------------*]GTR 1
[*-------------------------------|------------------------------*] 
[--8"------6"--8"--9"---12"------|-8"------6"--8"--9"---12"------]
[--6"------4"--6"--7"---10"------|-6"------4"--6"--7"---10"------]

[--------------------------------|-------------------------------]
[--------------------------------|-------------------------------]
[*-------------------------------|------------------------------*]GTR 2
[*-------------------------------|------------------------------*] 
[--8"------6"--8"--9"---12"------|-8"------6"--8"--9"---12"------]
[--6"------4"--6"--7"---10"------|-6"------4"--6"--7"---10"------]


End on A5 chord!

Check Out Death8699.com, With More Transcriptions On It:
 http://www.death8699.com
Добавлено: 25.03.2012
Другие материалы по этой песне:

Страница создана 07.03.2012
http://primanota.ru/marduk/502-chords.htm
Привет, Гость.
Предлагаем пройти революционный курс по гитаре.
Подарок от PrimaNota.Ru, забирай!