PrimaNota.ru - самый крупный в мире бесплатный архив песенных текстов, аккордов, табулатур и нот


Marcy Playground - Saint Joe On The School Bus - аккорды и текст, таба, видео

Регистрация Запомнить меня
Войти через:  Facebook Google Twitter Vk Yandex Mail.ru

Marcy Playground - Saint Joe On The School Bus - аккорды и текст, таба, видео

Печатать
Просмотров: 185
Авторы музыки: John Wozniak
Авторы текста: John Wozniak
Saint Joe On The School Bus
Marcy Playground



Subject: m/marcy_playground/saint_joe_on_the_school_bus.crd
From: ralf20@juno.com (Ryan Fields)
Date: Mon, 08 Jun 1998 21:14:18 EDT

song: Saint Joe on the School Bus
artist: Marcy Playground
album: Marcy Playground
author: Ryan Fields

Standard Tuning

Key:

/ slide up
 slide down

I know there's a solo but I haven't figured it out yet.  If anyone knows
it 
please email me.  also, on the chorus, the last time it is played it
repeats
a little bit.  if u listen to the CD you'll figure it out.

Verse:

e|-------------------------------------|
B|-------------------------------------|
G|-------------------------------------|
D|---4-4-4-4/7-7-7-72-2-2-2-2-222/3---|
A|---4-4-4-4/7-7-7-72-2-2-2-2-222/3---|
E|---2-2-2-2/5-5-5-5-0-0-0-0-000/1---|

Chorus:

e|-------------------------------------|
B|-------------------------------------|
G|------------------------------------o| 
D|------------------------------------o|
A|-------2-----2---2-----4-------7-----|
E|---0-0---0-0---0--/2-2---2/5-5---5---|

repeat above part several times

end chorus with this:

e|----------------------------------------|
B|----------------------------------------|
G|----------------------------------------|
D|------------------------------------2---|
A|--------9-----9---9-----2-----2---2-2---|
E|---/7-7---7-7---7---0-0---0-0---0---0---|




***Any questions or corrections plese email me at: Ralf20@juno.com***


Добавлено: 05.10.2013
Другие материалы по этой песне:

Страница создана 22.02.2012
http://primanota.ru/marcy-playground/saint-joe-on-the-school-bus-chords.htm
Привет, Гость.
Предлагаем пройти революционный курс по гитаре.
Подарок от PrimaNota.Ru, забирай!