PrimaNota.ru - самый крупный в мире бесплатный архив песенных текстов, аккордов, табулатур и нот


Marcy Playground - I Smell Sex And Candy - таба, видео

Регистрация Запомнить меня
Войти через:  Facebook Google Twitter Vk Yandex Mail.ru

Marcy Playground - I Smell Sex And Candy - таба, видео

Печатать
Просмотров: 544
this song is great to play

h= hammer
p= pull off
------------------------------------------|
------------------------------------------|
-4-4-4444-4-------------------------------|
-4-4-4444-4--5-5-5--4--4--4-4-4-4-4-4-----|    x3
-2-2-2222-2--5-5-5--4--4--4-4-4-4-4-4-----|
-------------3-5-3--2--2--2-2-2-2-2-2-----|
 after the third time of this end with
------------------------------------------|
------------------------------------------|
------------------------------------------|
-4-4-4-4-4-4-4-4--------------------------|
-4-4-4-4-4-4-4-4--------------------------|
-2-2-2-2-2-2-2-2--------------------------|

now it goes into that cool little lick that goes like this

--------------------|
--------------------|
--2h4-2-------------|
--------4-2p0-------|
--------------------|
--------------------|

after that it goes into the intro but with some changes

------------------------------------------|
------------------------------------------|
-4-4------2-2-----2h4-2-------------------|
-4-4--5-5-2-2-----------4-2p0-------------| x 3
-2-2--5-5-0-0-----------------------------|
------3-3---------------------------------|

after that it goes then into some more power chords

----------------|
----------------|
----------------|
--2-2-2-2-------|
--0-0-0-0-------|
----------------|

--2-2-2-2---------------------------------|
--3-3-3-3---------------------------------|
--2-2-2-2-2-2-2-2-4-4-4-4-----------------|
--0-0-0-0-2-2-2-2-4-4-4-4-5-5-5-5---------| x 2
----------0-0-0-0-2-2-2-2-5-5-5-5---------|
--------------------------3-3-3-3---------|

finish that part with

------------------------------------------|
------------------------------------------|
-4-4-4-4----------------------------------|
-4-4-4-4----------------------------------|
-2-2-2-2----------------------------------|
------------------------------------------|

then this

------------------------------------------|
------------------------------------------|
-4-4-4444-4-------------------------------|
-4-4-4444-4--5-5-5--4--4--4-4-4-4-4-4-----|    x3
-2-2-2222-2--5-5-5--4--4--4-4-4-4-4-4-----|
-------------3-5-3--2--2--2-2-2-2-2-2-----|
 then play the whole thing twice except on the intro to second half of song which is 
a very first but only play it once.

and thats it thres no solo ats great song to play if u wanna play some rytheme or a bit 
lead. thanks!
Добавлено: 21.07.2012
Другие материалы по этой песне:

Страница создана 27.06.2012
http://primanota.ru/marcy-playground/i-smell-sex-and-candy-chords.htm
Привет, Гость.
Предлагаем пройти революционный курс по гитаре.
Подарок от PrimaNota.Ru, забирай!