PrimaNota.ru - самый крупный в мире бесплатный архив песенных текстов, аккордов, табулатур и нот


Marcus Smaller - I Know - таба, видео

Регистрация Запомнить меня
Войти через:  Facebook Google Twitter Vk Yandex Mail.ru

Marcus Smaller - I Know - таба, видео

Печатать
Просмотров: 37
-------------------------------------------------------------------------------
                             I Know - Marcus Smaller
-------------------------------------------------------------------------------
Tabbed by: Moerk

Tuning: Standard

Capo 1st

Intro:
e|---------------------------------------------------| |---------------------------------------------------|
B|----------1----------------------------------------| |----------1----------------------------------------|
G|-------0------0------------------------------------| |-------0------0------------------------------------|
D|-3-------------------------------------------------| |---------------------------------------------------|
A|---------------------------------------------------| |-3-------------------------------------------------|
E|---------------------------------------------------| |---------------------------------------------------|

e|---------------------------------------------------| |---------------------------------------------------|
B|----------1----------------------------------------| |----------1----------------------------------------|
G|-------0------0------------------------------------| |-------0------0------------------------------------|
D|---------------------------------------------------| |---------------------------------------------------|
A|-2-------------------------------------------------| |-0-------------------------------------------------|
E|---------------------------------------------------| |---------------------------------------------------| 2x

Verse 1: Geraedert durchs leben....
e|---------------------------------------------------| |---------------------------------------------------|
B|----------1-----------------------1----------------| |-----------1-----------------------1---------------|
G|-------0--------0-----0--------0--------0-----0----| |--------0--------0-----0--------0--------0-----0---|
D|-3-----------------3-----3-----------------3-------| |---------------------------------------------------|
A|---------------------------------------------------| |--3-----------------3-----2-----------------2------|
E|---------------------------------------------------| |---------------------------------------------------| 8x

Pre Chorus: Honestly i feel like...
e|---------------------------------------------------| |---------------------------------------------------|
B|----------1-----------------------1----------------| |-----------1-----------------------1---------------|
G|-------0--------0-----0--------0--------0-----0----| |--------0--------0-----0--------0--------0-----0---|
D|---------------------------------------------------| |---------------------------------------------------|
A|-0-----------------0-----0-----------------0-------| |--2-----------------2-----2-----------------2------|
E|---------------------------------------------------| |---------------------------------------------------|

e|---------------------------------------------------| |---------------------------------------------------|
B|----------1-----------------------1----------------| |-----------1-----------------------1---------------|
G|-------0--------0-----0--------0--------0-----0----| |--------0--------0-----0--------0--------0-----0---|
D|---------------------------------------------------| |--3-----------------3-----3-----------------3------|
A|-3-----------------3-----3-----------------3-------| |---------------------------------------------------|
E|---------------------------------------------------| |---------------------------------------------------| 2x

Chorus: I know know know...
e|---------------------------------------------------| |---------------------------------------------------|
B|----------1-----------------------1----------------| |-----------1-----------------------1---------------|
G|-------0--------0-----0--------0--------0-----0----| |--------0--------0-----0--------0--------0-----0---|
D|---------------------------------------------------| |--3-----------------3-----3-----------------3------|
A|-0-----------------0-----0-----------------0-------| |---------------------------------------------------|
E|---------------------------------------------------| |---------------------------------------------------|

e|---------------------------------------------------| |---------------------------------------------------|
B|----------1-----------------------1----------------| |-----------1-----------------------1---------------|
G|-------0--------0-----0--------0--------0-----0----| |--------0--------0-----0--------0--------0-----0---|
D|---------------------------------------------------| |---------------------------------------------------|
A|-3-----------------3-----3-----------------3-------| |---------------------------------------------------|
E|---------------------------------------------------| |--3-----------------3-----3-----------------3------|

e|---------------------------------------------------| |---------------------------------------------------|
B|----------1-----------------------1----------------| |-----------1-----------------------1---------------|
G|-------0--------0-----0--------0--------0-----0----| |--------0--------0-----0--------0--------0-----0---|
D|---------------------------------------------------| |--3-----------------3-----3-----------------3------|
A|-0-----------------0-----0-----------------0-------| |---------------------------------------------------|
E|---------------------------------------------------| |---------------------------------------------------|

e|---------------------------------------------------| |---------------------------------------------------|
B|----------1-----------------------1----------------| |-----------1-----------------------1---------------|
G|-------0--------0-----0--------0--------0-----0----| |--------0--------0-----0--------0--------0-----0---|
D|---------------------------------------------------| |---------------------------------------------------|
A|---------------------------------------------------| |--3-----------------3-----3-----------------3------|
E|-3-----------------3-----3-----------------3-------| |---------------------------------------------------|


Verse: Der Weg ist mein Ziel...
e|---------------------------------------------------| |---------------------------------------------------|
B|----------1-----------------------1----------------| |-----------1-----------------------1---------------|
G|-------0--------0-----0--------0--------0-----0----| |--------0--------0-----0--------0--------0-----0---|
D|-3-----------------3-----3-----------------3-------| |---------------------------------------------------|
A|---------------------------------------------------| |--3-----------------3-----2-----------------2------|
E|---------------------------------------------------| |---------------------------------------------------| 8x

Pre Chorus: Honestly my mind has...
e|---------------------------------------------------| |---------------------------------------------------|
B|----------1-----------------------1----------------| |-----------1-----------------------1---------------|
G|-------0--------0-----0--------0--------0-----0----| |--------0--------0-----0--------0--------0-----0---|
D|---------------------------------------------------| |---------------------------------------------------|
A|-0-----------------0-----0-----------------0-------| |--2-----------------2-----2-----------------2------|
E|---------------------------------------------------| |---------------------------------------------------|

e|---------------------------------------------------| |---------------------------------------------------|
B|----------1-----------------------1----------------| |-----------1-----------------------1---------------|
G|-------0--------0-----0--------0--------0-----0----| |--------0--------0-----0--------0--------0-----0---|
D|---------------------------------------------------| |--3-----------------3-----3-----------------3------|
A|-3-----------------3-----3-----------------3-------| |---------------------------------------------------|
E|---------------------------------------------------| |---------------------------------------------------| 2x

Chorus: I know know know...
e|---------------------------------------------------| |---------------------------------------------------|
B|----------1-----------------------1----------------| |-----------1-----------------------1---------------|
G|-------0--------0-----0--------0--------0-----0----| |--------0--------0-----0--------0--------0-----0---|
D|---------------------------------------------------| |--3-----------------3-----3-----------------3------|
A|-0-----------------0-----0-----------------0-------| |---------------------------------------------------|
E|---------------------------------------------------| |---------------------------------------------------|

e|---------------------------------------------------| |---------------------------------------------------|
B|----------1-----------------------1----------------| |-----------1-----------------------1---------------|
G|-------0--------0-----0--------0--------0-----0----| |--------0--------0-----0--------0--------0-----0---|
D|---------------------------------------------------| |---------------------------------------------------|
A|-3-----------------3-----3-----------------3-------| |---------------------------------------------------|
E|---------------------------------------------------| |--3-----------------3-----3-----------------3------|

e|---------------------------------------------------| |---------------------------------------------------|
B|----------1-----------------------1----------------| |-----------1-----------------------1---------------|
G|-------0--------0-----0--------0--------0-----0----| |--------0--------0-----0--------0--------0-----0---|
D|---------------------------------------------------| |--3-----------------3-----3-----------------3------|
A|-0-----------------0-----0-----------------0-------| |---------------------------------------------------|
E|---------------------------------------------------| |---------------------------------------------------|

e|---------------------------------------------------| |---------------------------------------------------|
B|----------1-----------------------1----------------| |-----------1-----------------------1---------------|
G|-------0--------0-----0--------0--------0-----0----| |--------0--------0-----0--------0--------0-----0---|
D|---------------------------------------------------| |---------------------------------------------------|
A|---------------------------------------------------| |--3-----------------3-----3-----------------3------|
E|-3-----------------3-----3-----------------3-------| |---------------------------------------------------|

Bridge: Absurd lies and...
e|---------------------------------------------------| |---------------------------------------------------|
B|----------1-----------------------1----------------| |-----------1-----------------------1---------------|
G|-------0--------0-----0--------0--------0-----0----| |--------0--------0-----0--------0--------0-----0---|
D|-3-----------------3-----3-----------------3-------| |---------------------------------------------------|
A|---------------------------------------------------| |--3-----------------3-----2-----------------2------|
E|---------------------------------------------------| |---------------------------------------------------| 4x

Chorus: I know know know...
e|---------------------------------------------------| |---------------------------------------------------|
B|----------1-----------------------1----------------| |-----------1-----------------------1---------------|
G|-------0--------0-----0--------0--------0-----0----| |--------0--------0-----0--------0--------0-----0---|
D|---------------------------------------------------| |--3-----------------3-----3-----------------3------|
A|-0-----------------0-----0-----------------0-------| |---------------------------------------------------|
E|---------------------------------------------------| |---------------------------------------------------|

e|---------------------------------------------------| |---------------------------------------------------|
B|----------1-----------------------1----------------| |-----------1-----------------------1---------------|
G|-------0--------0-----0--------0--------0-----0----| |--------0--------0-----0--------0--------0-----0---|
D|---------------------------------------------------| |---------------------------------------------------|
A|-3-----------------3-----3-----------------3-------| |---------------------------------------------------|
E|---------------------------------------------------| |--3-----------------3-----3-----------------3------|

e|---------------------------------------------------| |---------------------------------------------------|
B|----------1-----------------------1----------------| |-----------1-----------------------1---------------|
G|-------0--------0-----0--------0--------0-----0----| |--------0--------0-----0--------0--------0-----0---|
D|---------------------------------------------------| |--3-----------------3-----3-----------------3------|
A|-0-----------------0-----0-----------------0-------| |---------------------------------------------------|
E|---------------------------------------------------| |---------------------------------------------------|

e|---------------------------------------------------| |---------------------------------------------------|
B|----------1-----------------------1----------------| |-----------1-----------------------1---------------|
G|-------0--------0-----0--------0--------0-----0----| |--------0--------0-----0--------0--------0-----0---|
D|---------------------------------------------------| |---------------------------------------------------|
A|---------------------------------------------------| |--3-----------------3-----3-----------------3------|
E|-3-----------------3-----3-----------------3-------| |---------------------------------------------------| 2x

Bridge: Absurd lies and...
e|---------------------------------------------------| |---------------------------------------------------|
B|----------1-----------------------1----------------| |-----------1-----------------------1---------------|
G|-------0--------0-----0--------0--------0-----0----| |--------0--------0-----0--------0--------0-----0---|
D|-3-----------------3-----3-----------------3-------| |---------------------------------------------------|
A|---------------------------------------------------| |--3-----------------3-----2-----------------2------|
E|---------------------------------------------------| |---------------------------------------------------| 2x

Outro: One tire for every...
e|---------------------------------------------------| |---------------------------------------------------|
B|-1-------------------------------------------------| |-1-------------------------------------------------|
G|-0-------------------------------------------------| |-0-------------------------------------------------|
D|---------------------------------------------------| |---------------------------------------------------|
A|-0-------------------------------------------------| |---------------------------------------------------|
E|---------------------------------------------------| |-1-------------------------------------------------|

e|---------------------------------------------------| |---------------------------------------------------|
B|-1-------------------------------------------------| |-1-------------------------------------------------|
G|-0-------------------------------------------------| |-0-------------------------------------------------|
D|---------------------------------------------------| |---------------------------------------------------|
A|---------------------------------------------------| |---------------------------------------------------|
E|-3-------------------------------------------------| |-1-------------------------------------------------|
Добавлено: 22.05.2016
Вам также может быть интересно:
Другие материалы по этой песне:

Страница создана 22.05.2016
http://primanota.ru/marcus-smaller/i-know-chords.htm
Привет, Гость.
Предлагаем пройти революционный курс по гитаре.
Подарок от PrimaNota.Ru, забирай!