PrimaNota.ru - самый крупный в мире бесплатный архив песенных текстов, аккордов, табулатур и нот


Marcus Miller - La Villette - бас-таба, видео

Регистрация Запомнить меня
Войти через:  Facebook Google Twitter Vk Yandex Mail.ru

Marcus Miller - La Villette - бас-таба, видео

Печатать
Просмотров: 210
As recorded by Marcus Miller
(From the 2005 Album SILVER RAIN)


Transcribed by Peter Scholl

 Words by Lalah Hathaway Music by Marcus Miller

 

Gtr I (E A D G) - 'Untitled'
Gtr II (E A D G) - 'Untitled'


 Intro
  Moderately Q=94
 4/4
  Gtr I
  W          H    Q   a  S  S S  T  T
|----------|--------------------------|
|----------|--------------------------|
|----------|---------11h12p11-9-11h12p|
|----------|--------------------------|


                                          ~~~~
   E E Q  +Q   +S  S S  S     S  E.  Q   +H
|----------------------(9)-|-11h13--------------|
|------------------7s9-----|--------11--(11)----|
|-11-9-9--(9)--(9)---------|--------------------|
|--------------------------|--------------------|


  E E Q   E   S S  S  S E   +H     Q  S  S S  S
|------------11---11------|---------------------|
|--------(x)----x----11s9-|-(9)-------9-11------|
|-------------------------|------------------11-|
|-2-0---------------------|---------------------|


   +S    S    S   S  Q  +H       W
|------------------------------|------|
|------------------------------|------|
|-(11)h(12)p(11)p(9)-9--(9)----|------|
|------------------------------|------|


  E E Q  Q  E. S   H    E S S S e.   E E H    E. S   H    Q  S   E.
|----------------|----------x------|---------------|----------------||
|--------------2-|-----------------|-------------2-|----------------||
|----------------|--------x-----4--|---------------|----------------||
|-2-0------------|-----------------|-2-0-----------|-----------/16\-||


 Pre-verse
                                 |--3---|                     |--3---|
  Q  a  E e E e E E   +Q   a E E S  S   S  E e E   +Q   a E E S  S   S  E e E
|-------------------|----------------------------|-----------------------------|
|----9s11p9-9-7-7-6-|-(6)--7s9-7-7h(9)p(7)-6-6-4-|-(4)--6s7-6-6h(7)p(6)-4-4----|
|-------------------|----------------------------|--------------------------7--|
|-------------------|----------------------------|-----------------------------|


   S  a E. E  S  S +e. S S S S S   E. S a  E e a E E e E
|--------------------------------|-----------------------|
|------------(x)-4-(4)-4---------|----x-9s11p9-7s9-7-7-6-|
|-(x)-7s6--4-------------0h2-4-0-|-----------------------|
|--------------------------------|-2---------------------|


   ~~~
             |--3---|    |--3---|
  +Q   a E e S  S   S  E S  S   S  E
|-------------------------------------|
|-(6)--7s9-7-7h(9)p(7)-6-6h(7)p(6)-4--|
|-------------------------------------|
|-------------------------------------|


                                                           Verse
             |--3---|
  +Q   a E E S  S   S  E e E   S E. E  S  S +Q   S S S S    Q  E. S Q  Q
|----------------------------|---------------------------||---------------|
|-(4)--6s7-6-6h(7)p(6)-4-4---|------------4-(4)----------||-------x-------|
|--------------------------7-|-x-6--4-(4)--------0h2-4-0-||---------------|
|----------------------------|---------------------------||-2-------------|


                          |-3-|
  E. S E. S +S  E S E E   S S S +E  E.  S  E. S S S S S   +S  E. Q  Q  E. S
|-----------------------|-------------------------------|-------------------|
|-----------------------|-4h6p4-(4)----(x)----2---------|-------------------|
|----7----7-(7)-7-x-6-4-|-----------------------0h2-4-2-|-(2)-------------4-|
|-----------------------|-------------------------------|-----0-------------|


  S E. Q  Q  S S S S   +S  E. Q  E. S S S S S   Q   Q   E. S S S S S
|-2------------------|----------------------2-|----------------------|
|---4----------------|--------------------4---|-4--(4)-----2---------|
|------------0h2-4-2-|-(2)----------0h2-4-----|--------------0h2-4-2-|
|--------------------|-----0------------------|----------------------|


                        Pre-verse
                                     |---3---|    |--3---|
  +S  E. Q  Q  S   E.    E. S a  E e S   S   S  e S  S   S  E
|---------------------||--------------------------------------|
|---------------------||------9s11p9-9h(11)p(9)-7-7h(9)p(7)-6-|
|-(2)-----------------||----x---------------------------------|
|-----0----------/16\-||--------------------------------------|


   ~~~
             |--3---|    |--3---|
  +Q   a E e S  S   S  e S  S   S  E
|------------------------------------|
|-(6)--7s9-7-7h(9)p(7)-6-6h(7)p(6)-4-|
|------------------------------------|
|------------------------------------|


              |--3---|
  +E  e a E e S  S   S  e e E
|-----------------------------|
|-(4)-4-6s7-6-6h(7)p(6)-4-4---|
|---------------------------7-|
|-----------------------------|


                                               |---3---|
   S  a E. E  S  S +e. S S S S S   E. S a  E e S   S   S  e e E
|--------------------------------|------------------------------|
|------------(x)-4-(4)-4---------|------9s11p9-9h(11)p(9)-7-7-6-|
|-(x)-7s6--4-------------0h2-4-0-|----x-------------------------|
|--------------------------------|-2----------------------------|


   ~~~
             |--3---|    |--3---|
  +Q   a E e S  S   S  e S  S   S  E
|------------------------------------|
|-(6)--7s9-7-7h(9)p(7)-6-6h(7)p(6)-4-|
|------------------------------------|
|------------------------------------|


             |--3---|
  +Q   a E e S  S   S  e e E    S  a E. E  S  S S E. S S S S
|----------------------------|-------------------------------||
|-(4)--6s7-6-6h(7)p(6)-4-4---|------------(x)-4h6p4----------||
|--------------------------7-|-(x)-7s6--4------------0h2-4-0-||
|----------------------------|-------------------------------||


 Verse
  Q  E. S H      S S E E e H      E E E. S Q  E. S   E S S e S S e S S E E
|--------------|----------------|------------------|------------------------|
|-------4------|-x-------2------|--------4-------x-|---2-2-2-2-2-2-2-2-2----|
|--------------|----------------|------------------|------------------------|
|-2------------|---0---x--------|-2-0--------------|-0----------------------|


  E E E. S Q  E. S   q  e S S e S S e E   E E S s E e E E e
|------------------|--------------------|-------2-----------|
|--------4-------x-|----2---2-2---2-2---|-----------4-----4-|
|------------------|--------------------|-------------------|
|-2-0--------------|-0------------------|-2-0---------------|


                                    Chorus
  S S e S T T e S T T e S  S  S S    Wx3
|-------------------------------4-||------------|
|---x-2---2-2-2---2-2-2---(2)-----||------------|
|---------------------------------||------------|
|---------------------------------||------------|


               $
               $$
          |3-|
  H    Q  Q  E     H     +E.  S  +E   E
|--------------|-/14----(14)-13-(13)-11--|
|-----------11-|-------------------------|
|--------------|-------------------------|
|--------------|-------------------------|


   +S   E.  +Q    +E.  S  +E   e
|-(11)-10--(10)--(10)-11-(11)-13-|
|--------------------------------|
|--------------------------------|
|--------------------------------|


  S   E  S  +Q    +E.  S  +E   E    +S   E.  +Q    +S   E.  +Q
|---/16s14-(14)--(14)-13-(13)-11-|-(11)-11--(11)--(11)-10--(10)--|
|--------------------------------|-------------------------------|
|--------------------------------|-------------------------------|
|--------------------------------|-------------------------------|


  a  Q  E. S E  T T  T T E S S   S S S S S  S  T T  T T E  S   a  S  +E   e
|-9S11-----x---11-9----------x-|---9---9-9h11-11-9------------11s13-(13)----|
|-------------------11-9-7-x---|-------------------11-9-7-(x)------------11-|
|------------------------------|--------------------------------------------|
|------------------------------|--------------------------------------------|


  S S S S S  S  T T  T T E S  S S S S S
|---9---9-9h11-11-9--------9s10---9---9--|
|-------------------11-9-7---------------|
|----------------------------------------|
|----------------------------------------|


                                To Coda
                                To Coda
  S  S  T T  T T S S S S S s T T T T Q
|-9h11-11-9-----------------------------||
|-----------11-9-7-----------------7----||
|------------------9---9-9s7-9-7-9---9--||
|---------------------------------------||


 Bass solo
                     ~~~
  E. S E S  S E S S +E  S S   S S S S E S S S S S. T E E
|----------^x---x---------x-|-------------x----------------|
|----x-----^4---7p6-(6)-----|-----7-------------2----------|
|-----------------------9---|-7h9---9-4-4---2h4----4-0-----|
|-2----x-x----x---x---------|--------------------------2---|


  +S   E S +S  E S S E S +S  S S S
|----------------------------------|
|--------------------4-6-(6)-6s7-6-|
|--------2-(2)-4-4s6---------------|
|-(2)-/4---------------------------|


                                                            ~
  +S  S S S S S S S S S S S S S E   S S S S S T T S S E S S E E
|---------------------------------|-----2---2-2-2-2-2-2-2-2-------|
|-(6)-4-------4-------2-----------|-------------------------4-2---|
|-------6-5-4---4-3-2---4---2s4---|---x---x-----------------------|
|---------------------------------|-------------------------------|


                                ~
  S S S S S E S S  S  T T T T E E   s S s S E a S S E T T T T E T T T T
|-----2-2---2-2-2-(x)-2-2-2-2-----|-----2-2-2-2h4-4-4-6-6-6-6-6-9-9-9-9-|
|-----------------------------4-2-|-4-----------------------------------|
|---x-----------------------------|---4---------------------------------|
|---------------------------------|-------------------------------------|


  E  T  T  T  T  E  T  T  T  T  E  T  T T  T S S e
|-9-11-11-11-11-11-13-13-13-13-13-13-11-9----------|
|-----------------------------------------11-------|
|--------------------------------------------7-5-4-|
|--------------------------------------------------|


                      ~~
  s S S S  S S  s  S  E S  S  S S e
|------------9-11-11s13-9-11----9----|
|-----7-9s11-----------------11---9--|
|-9-9--------------------------------|
|------------------------------------|


  ~~                       ~~
  E. S S S S S  S S  s  S  E S S
|----x------------9-11-11s13---9-|
|-7--------7-9s11----------------|
|--------9-----------------------|
|--------------------------------|


       ~~~~                   ~~~
   s S E E S S  T  T  S  S S  E. S   T  T S  S S  E S S E S S E E
|-11---------x-------11----------x-|------9-------------------------|
|----9-7-9-x---11s13----11s9-11----|-9s11---11s9-11-9s7-9-7s4-6-----|
|----------------------------------|----------------------------4---|
|----------------------------------|--------------------------------|


                        ~~~~~
  S S S S S S  S  S S S E E. S   S S S S S S S S s  S  S  S  S  S e
|------------------------------|-------------6s9-9------------------|
|-----4S6-7-9-10-11---9-7-4----|-----4S6-7-9-------11-11s12-11s12-9-|
|-x-4---------------9--------2-|-x-4--------------------------------|
|------------------------------|------------------------------------|


  S S S S S S S S S S E E +T  T T T
|-------------6---------------------|
|-----4-6s7-9---7-9-7-------------9-|
|-9-4-----------------9-7-(7)-7-7---|
|-----------------------------------|


  T T T  T  T  T  T  T  T  T  T  T  T  T  T  T T T T  T T T T T T T T  T T T T T
|--------------------------------------------------------------------------------|
|-------11----------13----------14----------13-------11-------9----------------9-|
|-9-9-9----11-11-11----12-12-12----11-11-11----9-9-9----7-7-7---------11---------|
|---------------------------------------------------------------9-9-9----7-7-7---|


                           ~~~~~~                    ~~~~
             |-3-|
  E. S +S  S S S S S S s a S +S  E S   S S S S S S a E E E E E
|----------------------2-2h4-(4)-2-x-|---------4-x-4h6---------|
|----------x-------2h4---------------|-----4h7---------7-4-----|
|------------0h2h4-------------------|-4h7-----------------4---|
|-0--2-(2)---------------------------|-------------------------|


  |----6----| |----6-----| |------6------|  |------6-------|
  S S S S S S S S S S  S S S  S  S S  S  S  S  S  S  S  S  S
|------------------------------------------------------------|
|-----7-----7-----9------9------10------10-------11-------11-|
|-7h9---7h9---7h9---9h11---9h11----9h11----11h12----11h12----|
|------------------------------------------------------------|


   |--3--|
   S  S  S  T  T  T  T  S  S  T  T  T  T  S  S  E    Q
|-------------------14s18s14----------14s18\---14\-------||
|-------13-14p11h14----------14p11h14--------x-----------||
|-11h12--------------------------------------------/11\--||
|--------------------------------------------------------||


 Chorus
                                     D.S. al Coda
                                               |3-|
  E.  a  S  +E   e H      Wx2          H    Q  Q  E
|----14s17-(17)s18------|------------|--------------||
|-----------------------|------------|-----------11-||
|-----------------------|------------|--------------||
|-----------------------|------------|--------------||


   Pre-verse
    &
                |---3---|
    E. S a  E E S   S   S  E E E
||-------------------------------|
||o------9s11-9-9h(11)p(9)-7-7-6-|
||o----x-------------------------|
||--2----------------------------|


   ~~~
                |--3---|               |--3---|
  +E. S E E E E S  S   S  E   +Q   E e S  S   S  E E E
|---------------------------|--------------------------|
|-(6)---9-7-7-6-6h(7)p(6)-4-|-(4)--7-6-6h(7)p(6)-4-4---|
|---------------------------|------------------------7-|
|-----9---------------------|--------------------------|


  1.
                    ~~~
   S  a E. E  S  S +e  S S S S S S
|-----------------------------------||
|------------(x)-4-(4)-x-4---------o||
|-(x)-7s6--4---------------0h2-4-0-o||
|-----------------------------------||


                                     Verse
 2.
                    ~~~
   S  a E. E  S  S +e. S S S S T T    q  E. S H
|----------------------------------||--------------|
|------------(x)-4-(4)-4-4-4-----x-||-------4------|
|-(x)-7s6--4-----------------------||--------------|
|------------------------------x---||-2------------|


  S S S S S S S S S S S S S S S S
|---------------------------------|
|---2-------------------2---------|
|-4-----2h4---x-x-x-2h4---4p2-----|
|-----------------------------5-2-|


  +S  e. E. S S E. Q    S E S +S  S S S S S S S S S E
|---------------------|-x-----------------------------|
|-------------4-------|---2-------------------2-------|
|-----------x---------|-----4-(4)---x-x-x-2h4---4p2---|
|-(2)-2---------------|-----------------------------5-|


  E E E T T s e s s e e   s E S E E S S S S S S E   a E E E T T s e E Q
|-----------------------|-------------------------|----------------------|
|-------2-2-2-2-2-2-2-2-|-2-2-------------2-------|---------2-2-2-2------|
|-----------------------|-----2h4---x-2h4---4p2---|----------------------|
|-2-0-------------------|-----------------------5-|-0h2-0----------------|


                         Chorus
                                               |3-|
  S E S +E  E Q    Q      Wx3          H    Q  Q  E     H     +E.  S  +E   E
|----------------------||------------|--------------|-/14----(14)-13-(13)-11-|
|-4-2------------------||------------|-----------11-|------------------------|
|-----4-(4)------------||------------|--------------|------------------------|
|----------------/17\--||------------|--------------|------------------------|


   +S   E.  +Q    +E.  S  +E   e
|-(11)-10--(10)--(10)-11-(11)-13-|
|--------------------------------|
|--------------------------------|
|--------------------------------|


  S   E  S  +Q    +E.  S  +E   E    +S   E.  +Q    H
|---/16s14-(14)--(14)-13-(13)-11-|-(11)-11--(11)--10----|
|--------------------------------|----------------------|
|--------------------------------|----------------------|
|--------------------------------|----------------------|


                            D.S.S. al Dbl. Coda
                                               &&
                                          |3-|
  Q   a  E. S H      Wx2          H    Q  Q  E
|----14s17s18------|------------|--------------||
|------------------|------------|-----------11-||
|------------------|------------|--------------||
|------------------|------------|--------------||


 Outro
                         ~
  E E H     E. S   E S S Q  E a  E Q
|----------/6--4-|---7-6-4----9s11------|
|----------------|-7--------------------|
|----------------|----------------------|
|-0-2------------|----------------------|


  |-----6------|  |-----6------| |------6------|  |------6------|
  S S  S  S S  S  S S  S  S S  S S  S  S  S S  S  S S  S  S  S  S
|-------------------9-------------------------------9-11-13-14-13-|
|-----------9-11-13---13-11-9---------------9-11-13---------------|
|-9---11-12-------------------11-9----11-12-----------------------|
|----------------------------------12-----------------------------|


                                         T                T
   |-----6-----| |--3--|
   S S S  S S  S S  S  S E E  E  +T   T  T  T  T  +T   T  T
|-11---9---------------------13-(13)h16h20p16p13-(13)-16h20p==|
|--------11-9-------------------------------------------------|
|-------------11-9--------------------------------------------|
|------------------12-11-9------------------------------------|


            T           T                T           T             T             T
   T  S  T  T  T  S  T  T  T  T  +T   T  T  T  S  T  T  T  T S  T  T  T  T S  T  T
|-16p13h16h20p16p13h16h20p16p13-(13)-16h20p16p13h16h20p16p13h==16h20p16p13---16h20p|
|----------------------------------------------------------------------------------|
|----------------------------------------------------------------------------------|
|----------------------------------------------------------------------------------|


           T
   T  T T  T  T T  T T  T  T  T  T E +H
|-16p13---15p11p8---------------------------|
|-----------------11p8h11-13-11-13----------|
|----------------------------------9-(9)----|
|-------------------------------------------|


  E E H    E. S   S S S S S S S S S S S S e e   Wx5
|-------------9-|---7---6---------------------|--------*|
|---------------|-----------9---7---7-6-7-4---|--------*|
|---------------|---------------------------6-|--------*|
|-2-0-----------|-----------------------------|--------*|




--------------------------------------------------------------------------------


Duration Legend
---------------
W - whole; H - half; Q - quarter; E - 8th; S - 16th; T - 32nd; X - 64th; a - acciaccatura
+ - note tied to previous; . - note dotted; .. - note double dotted
Uncapitalized letters represent notes that are staccato (1/2 duration)
Irregular groupings are notated above the duration line
Duration letters will always appear directly above the note/fret number it represents the
duration for.  Duration letters with no fret number below them represent rests.  Multi-
bar rests are notated in the form Wxn, where n is the number of bars to rest for.  Low
melody durations appear below the staff

Tablature Legend
----------------
 h   - hammer-on
 p   - pull-off
 b   - bend
 pb  - pre-bend
 r   - bend release (if no number after the r, then release immediately)
 /\  - slide into or out of (from/to "nowhere")
 s   - legato slide
 S   - shift slide
 - natural harmonic
[n]  - artificial harmonic
n(n) - tapped harmonic
 ~   - vibrato
 tr  - trill
 T   - tap
 TP  - trem. picking
 PM  - palm muting
\n/  - tremolo bar dip; n = amount to dip
 \n  - tremolo bar down
 n/  - tremolo bar up
/n\  - tremolo bar inverted dip
 =   - hold bend; also acts as connecting device for hammers/pulls
 <> - volume swell (louder/softer)
 x   - on rhythm slash represents muted slash
 o   - on rhythm slash represents single note slash

Misc Legend
-----------
 |  - bar
||  - double bar
||o - repeat start
o|| - repeat end
*|  - double bar (ending)
 :  - bar (freetime)
 $  - Segno
 &  - Coda
Tempo markers -  = BPM(8/16=s8/s16), where s8 = swing 8ths, s16 = swing 16ths



--------------------------------------------------------------------------------


Добавлено: 29.04.2012
Другие материалы по этой песне:

Страница создана 29.04.2012
http://primanota.ru/marcus-miller/la-villette-chords.htm
Привет, Гость.
Предлагаем пройти революционный курс по гитаре.
Подарок от PrimaNota.Ru, забирай!