PrimaNota.ru - самый крупный в мире бесплатный архив песенных текстов, аккордов, табулатур и нот


Marcus Miller - Cousin John - бас-таба, видео

Регистрация Запомнить меня
Войти через:  Facebook Google Twitter Vk Yandex Mail.ru

Marcus Miller - Cousin John - бас-таба, видео

Печатать
Просмотров: 184
g|-12-14-12----------------------------|
d|----------14-12-14-12----------------|
a|----------------------14-12-14-12----|
e|----------------------------------15-|


g|-----|-----------|-----------|
d|---2-|-----P-----|-0-0-2---2-|
a|-----|-------6-7-|-----------|
e|-0---|-3-5-------|-------0---|

Here is the intro of cousin john by Marcus Miller. 


Sam
Добавлено: 27.07.2012
Другие материалы по этой песне:
  • Аккорды и текст

Страница создана 27.07.2012
http://primanota.ru/marcus-miller/cousin-john-chords.htm
Привет, Гость.
Предлагаем пройти революционный курс по гитаре.
Подарок от PrimaNota.Ru, забирай!