PrimaNota.ru - самый крупный в мире бесплатный архив песенных текстов, аккордов, табулатур и нот


Marco Beltrami - The Giver - Rosemarys Theme - таба, видео

Регистрация Запомнить меня
Войти через:  Facebook Google Twitter Vk Yandex Mail.ru

Marco Beltrami - The Giver - Rosemarys Theme - таба, видео

Печатать
Просмотров: 165
-------------------------------------------------------------------------------
                          The Giver - Rosemary's Song  
-------------------------------------------------------------------------------

Piano song played in The Giver

Tabbed by: Blake Harvey

Tuning: Standard

e|-------12--------12-------12-------------12-------12-----------------------|
B|----10----13-10-----13-10-------------10----13-10----13-10-13--12----------|
G|---------------------------------------------------------------------------|
D|---------------------------------------------------------------------------|
A|---------------------------------------------------------------------------|
E|---------------------------------------------------------------------------|
  For (17-10-10) use your strumming hand pointer finger to hold down 17 and use you thumb to strum
e|----12--------12--------13---15---17--13--12--10--8--10--7---|
B|-10-10--13-10----13-10--10---12---10---------------------8---|
G|--------------12--------10---12---10---------------------7---|
D|---------------------------------------------------------5---|
A|-------------------------------------------------------------|
E|-------------------------------------------------------------|

e|-------------------0-----------0-----------------------------------0-------|
B|-------5-----------------1---1-------1---1-------------5-----------------1-|
G|-------------5---5-----2---2-------0---0-------4-5-4-5-------5---5-----2---|
D|-----------7---7-----3-----------2-------------------------7---7-----3-----|
A|-------7-7---------3-----------3-------------5---------7-7---------3-------|
E|----5--5-----------1-----------------------3-----------5-----------1-------|

e|----------------------------------------0-----------1-----------3----------|
B|--1-1-----1---1-------------5-----------------1---1-1-----1---1-3----------|
G|2-------0---0-------4-5-4-5-------5---5-----2---2-------2---2---------0---0|
D|----2-2-------------------------7---7-----3-----------3-------------0---0--|
A|----3-------------5---------7-7---------3-------------------------2--------|
E|----------------3-----------5-----------1-----------1-----------3----------|

e|-5---------------------------------------------------0-----------0---------|
B|-6---6-5-----5-6-5-----------------------5-----------------1-----------1---|
G|---------7---------4-5-4-5-4-5-4-5-4-----------5---------2---2-------0---0-|
D|---5-----------------------------------------7---7-----3-------3---2-------|
A|-5-------5-5-----7-----------------------7-7-------7-3-----------3---------|
E|--------------------------------------5--5-----------1---------------------|

e|--------------------------0------------------------------------------------|
B|--------------5-----------------1-----1-----1-----------------5------------|
G|------4-5-4---------5---------2---2-------0---0---4-----5-4---------5-4-5--|
D|2-----------5-----7---7-----3-------3---2-------2-----5-----5-----7--------|
A|----5---------7-7-------7-3-----------3-------------5---------7-7----------|
E|--3-----------5-----------1-----------------------3-----------5------------|

e|-0-----------1-----------3------------5------------------------------------|
B|-------1-0-1-1-----1---1-3------------6---6-5------5-6-5-------------------|
G|-----2-----------2---2---------0---0-----------7---------5-4---------4-5-4-|
D|---3-----------3-------------0---0------5--------------------7-5-3-7-------|
A|-3-------------------------2----------5--------5--5----7-----------------2-|
E|-1-----------1-----------3-----------------------------------5-----5-------|

e|-----0----------------------------------------------------------------------|
B|-----------------------------3----------------------------------------------|
G|-5-7-------4-----------4-----------4-----4----------------------------------|
D|---------5---5-------5---5-------5---5---5----------------------------------|
A|-------5-------5---5-------5---5-------5-5----------------------------------|
E|-----3-----------3-----------3-----------3----------------------------------|

************************************

| /   slide up
| \   slide down
| h   hammer-on
| p   pull-off
| ~   vibrato
| +   harmonic
| x   Mute note
| b   Bend
| pb  Pre-bend
| br  Bend release
| pbr Pre-bend release
| brb Bend release bend

************************************
Добавлено: 22.06.2016
Вам также может быть интересно:
Другие материалы по этой песне:
  • Аккорды и текст

Страница создана 22.06.2016
http://primanota.ru/marco-beltrami/giver-rosemarys-theme-chords.htm
Привет, Гость.
Предлагаем пройти революционный курс по гитаре.
Подарок от PrimaNota.Ru, забирай!