PrimaNota.ru - самый крупный в мире бесплатный архив песенных текстов, аккордов, табулатур и нот


Marco Arajo - Nervous System - таба, видео

Регистрация Запомнить меня
Войти через:  Facebook Google Twitter Vk Yandex Mail.ru

Marco Arajo - Nervous System - таба, видео

Печатать
Просмотров: 73
Title: Nervous System 3rd part:solo
Artist: Marco Araújo
Album: Nervous System
Words: Marco Araújo
Music: Marco Araújo
Copyright: Marco Araújo
Tabber: Marco Araújo
Tempo = 100
Marco Araújo

Legend      L - tied note   x - dead note   h - hammer on/pull off
s - slide   ~ - vibrato     g - ghost note   > - accentuated note
t - trill   M - palm mute   . - staccato     P - popping (bass)
S - slapping (bass)         + - tapping       W - wide vibrato
< - fade in    b - bend     w - whammy bar    = - tremolo picking
v - brush up                ^ - brush down    V - pick stroke up
n - pick stroke down

3rd part:solo
----------------------------------------------------|
----------------------------------------------------|
--7b----------------------9h----7h-5h-4-------------|
--------------------------------------------5h------|
----------------------------------------------------|
----------------------------------------------------|


----------------------------------------------------|-------|
----------------------------------------------------|-------|
----------------------------------------------------|-------|
--12----------12h10h9-----9h-10h9-------------------|-------|
--------------------------------------------10h-----|--7----|
----------------------------------------------------|-------|


--------------------------------------------------7-----------------------------|
--------------------------------------------------------------10h---7h-10L---10-|
--9b----------------------------------------------------------------------------|
--------------------------------------------------------------------------------|
--------------------------------------------------------------------------------|
--------------------------------------------------------------------------------|


--------------------|----------------------------------------------------|
---------10h7h------|--5-----------------------------------10h7h-8h-7----|
--------------------|----------------------------------------------------|
--------------------|----------------------------------------------------|
--------------------|----------------------------------------------------|
--------------------|----------------------------------------------------|


-------|----------------------------------------------------|
--8----|--17s12s---17s12s---17s12s---17s12s---17s12s---15s--|
-------|----------------------------------------------------|
-------|----------------------------------------------------|
-------|----------------------------------------------------|
-------|----------------------------------------------------|


----------------------------------------------------|
--8-----------10h7h-8--10h7h-8--10h7h-8L-8----------|
----------------------------------------------------|
----------------------------------------------------|
----------------------------------------------------|
----------------------------------------------------|


--------------------------------------------------------------------------------|
--17----------17h---15s12h15----------15h---12s10h12----------12h---10s8h-10----|
--------------------------------------------------------------------------------|
--------------------------------------------------------------------------------|
--------------------------------------------------------------------------------|
--------------------------------------------------------------------------------|


--------------------|-------|
------10s---8h-7h---|--8----|
--------------------|-------|
--------------------|-------|
--------------------|-------|
--------------------|-------|


----------------------------------------------------|-------|
--15b---------15h12----12----------15h---12---------|-------|
--------------------14-------------------------14h--|--12---|
----------------------------------------------------|-------|
----------------------------------------------------|-------|
----------------------------------------------------|-------|


---------------------------------------------------------------------------------|
---------------------------------------------------------------------------------|
--------------------------------------------------------9h-11h12-9h-11h12--------|
--------------------------------------9h-10h12-9h-10h12-------------------10h12h-|
--7h-9h-10-7h-9h-10-9h-10h12-9h-10h12--------------------------------------------|
---------------------------------------------------------------------------------|


--------------------|
--------------------|
------------11h12h--|
14-10h12h14---------|
--------------------|
--------------------|


-----------------------------------------12h14h15----------14h15h17----------15--|h
--------------------------------12h13h15----------13h15h17----------15h17h19-----|
--14-11h12h14----------11h12h14--------------------------------------------------|
--------------10h12h14-----------------------------------------------------------|
---------------------------------------------------------------------------------|
---------------------------------------------------------------------------------|


17h19----------17h--|
------17h19h20------|
--------------------|
--------------------|
--------------------|
--------------------|


--19h20----20h19h17-------------------------------------------------------------|
--------------------20h19h17----------------------------------------------------|
--------------------------------------------------------------------------------|
--------------------------------------------------------------------------------|
--------------------------------------------------------------------------------|
--------------------------------------------------------------------------------|


--------------------|----------------------------|
--------------------|-----------------------13---|
--------------------|-----------16-14-12-14------|
--------------------|--------17------------------|
--------------------|-----17---------------------|
--------------------|--15------------------------|


--------------------------------------------14s-----|
--12----------------------15h12----15h12------------|
----------------------------------------------------|
----------------------------------------------------|
----------------------------------------------------|
----------------------------------------------------|


--15----------------------------------14h---15h---17-------17h---15h---14h---12-|
--------------------------------------------------------------------------------|
--------------------------------------------------------------------------------|
--------------------------------------------------------------------------------|
--------------------------------------------------------------------------------|
--------------------------------------------------------------------------------|


--------------------|
------15------------|
--------------------|
--------------------|
--------------------|
--------------------|


--------------------------------------------------------------------------------|
--17----------------------------------15h---17h---19-------19h---17h---15-------|
--------------------------------------------------------------------------------|
--------------------------------------------------------------------------------|
--------------------------------------------------------------------------------|
--------------------------------------------------------------------------------|


--------------------|-------|
19s-----------------|--20---|
--------------------|-------|
--------------------|-------|
--------------------|-------|
--------------------|-------|


--------------------------------------------------------------------------------|
--12h8h-5--12h8h-5--12h8h-5--12h8h-5--12h8h-5--12h8h-5--12h8h-5--12h8h-5--12h8h-|
--------------------------------------------------------------------------------|
--------------------------------------------------------------------------------|
--------------------------------------------------------------------------------|
--------------------------------------------------------------------------------|


--------------------|
5--12h8h-5s---------|
--------------------|
--------------------|
--------------------|
--------------------|


--------------------------------------------------------------------------------|
--15h8h-12-15h8h-12-15h8h-12-15h8h-12-15h8h-12-15h8h-12-15h8h-12-15h8h-12-15h8h-|
--------------------------------------------------------------------------------|
--------------------------------------------------------------------------------|
--------------------------------------------------------------------------------|
--------------------------------------------------------------------------------|


--------------------|
12-15h8h-12s--------|
--------------------|
--------------------|
--------------------|
--------------------|


--------------------------------------------------------------------------------|
--12h8h-5--12h8h-5--12h8h-5--12h8h-5--12h8h-5--12h8h-5--12h8h-5--12h8h-5--12h8h-|
--------------------------------------------------------------------------------|
--------------------------------------------------------------------------------|
--------------------------------------------------------------------------------|
--------------------------------------------------------------------------------|


--------------------|
5--12h8h-5s---------|
--------------------|
--------------------|
--------------------|
--------------------|


--------------------------------------------------------------------------------|
--15h8h-12-15h8h-12-15h8h-12-15h8h-12-15h8h-12-15h8h-12-15h8h-12-15h8h-12-15h8h-|
--------------------------------------------------------------------------------|
--------------------------------------------------------------------------------|
--------------------------------------------------------------------------------|
--------------------------------------------------------------------------------|

                       W  W  W  W       W  W  W  W       W  W  W  W
--------------------|----------------|----------------|----------------|
12-15h8h-12s--------|--20s15s12s8----|--20s15s12L12---|--20s15s12s8s---|
--------------------|----------------|----------------|----------------|
--------------------|----------------|----------------|----------------|
--------------------|----------------|----------------|----------------|
--------------------|----------------|----------------|----------------|

  W  W  W  W
----------------|
--20s15s12L12---|
----------------|
----------------|
----------------|
----------------|
Добавлено: 23.09.2013
Вам также может быть интересно:
Другие материалы по этой песне:
  • Аккорды и текст

Страница создана 23.09.2013
http://primanota.ru/marco-arajo/nervous-system-chords.htm
Привет, Гость.
Предлагаем пройти революционный курс по гитаре.
Подарок от PrimaNota.Ru, забирай!