PrimaNota.ru - самый крупный в мире бесплатный архив песенных текстов, аккордов, табулатур и нот


Marcelo Camelo - Teus Olhos - таба, видео

Регистрация Запомнить меня
Войти через:  Facebook Google Twitter Vk Yandex Mail.ru

Marcelo Camelo - Teus Olhos - таба, видео

Печатать
Просмотров: 71
Авторы музыки: Marcelo Camelo

(/) Slide Up  (\) Slide Down  (h) Hammer On  (p) Pull Off  (b) Bend (r) Release (v) Vibrato


E|-----0-----0----------------------------0-----0-------------------------------------------------|
B|-----0-----0----------5--4--5--4--0-----0-----0----------5--4--5--4--0--2--------2-----2-----4--|
G|-----1-----1----------------------------1-----1----------------------------2--------2-----------|
D|------------------------------------------------------------------------------2-----------2--4--|
A|--------------2--2/4-----------------------------2--2/4-----------------0-----------------------|
E|--0-----4----------------------------0-----4----------------------------------------------------|


E|--0--2--0--2--0--4/7---------------------5/7--2h5--5--4--2--2-----0--2--0--2--0--3/5-------------5--|
B|-------------------------------5--4--3v------------2--2--2--4--1--1--1--1--1------------------------|
G|----------------------------4-------------------------------2---------------------------------------|
D|-------------------------6--------------------------------------------------------------------3-----|
A|----------------------7----------------------------0-----------0-------------------------0--3/4-----|
E|--------------------------------------------------------------------------------------0-------------|


E|-----------------4-----------------------------2-----2-----2-----2-----2-----4-----4-----4-----4-----|
B|-----------------2--5--5-----5-----5--0--------2-----2-----2-----2-----2-----5-----5-----5-----5-----|
G|--------------------0--0-----0-----0--0-----------------------------------------------4--------------|
D|--------------4-----------------------------------------2-----------------------6-----------------6--|
A|--------0--2--------0-----0-----0-----------------4-----------------4-----4-----------------4--------|
E|--0--2-----------------------------------0--2-----------------2--------------------------------------|


E|--4-----2--|
B|--5-----2--|
G|-----4-----|
D|-----------|
A|-----------|
E|--------2--|
Добавлено: 09.06.2016
Другие материалы по этой песне:
  • Аккорды и текст

Страница создана 09.06.2016
http://primanota.ru/marcelo-camelo/teus-olhos-chords.htm
Привет, Гость.
Предлагаем пройти революционный курс по гитаре.
Подарок от PrimaNota.Ru, забирай!